PrimaNota.ru - самый крупный в мире бесплатный архив песенных текстов, аккордов, табулатур и нот


Angie Stone - Brotha (feat. Alicia Keys, Eve, The) - аккорды и текст, таба, видео

Регистрация Запомнить меня
Войти через:  Facebook Google Twitter Vk Yandex Mail.ru

Angie Stone - Brotha (feat. Alicia Keys, Eve, The) - аккорды и текст, таба, видео

Печатать
Просмотров: 288
Авторы: Harold Lilly, Angie Stone, Glenn Standridge, Raphael Saadiq, Bobby Ozuna

Brotha
Angie Stone
tabbed by: qweyet Gi

Leave your criticisms.

     Cm7   Bb7  Dm7  Fm7
e|----8-----6----5----8----|
B|----8-----6----8----9----|
G|----8-----7----5----8----|
D|----8-----6----7----10---|
A|----10----8----5----8----|
E|----8-----6----x----x----|

Melody Riff - played the entire time
     Cm7        Cm7        Bb7       Bb7
e|-------6----------6---------6---------6--------------|
B|---------8-6--------8-6-------8-6-------8-6----------|
G|----8----------8----------7---------7----------------|
D|----8----------8----------6---------6----------------|
A|----10---------10---------8---------8----------------|
E|----8----------8----------6---------6----------------|

     Dm7        Dm7        Fm7           Fm7
e|------8----------8-----------11-----------11---------|
B|----6---10-8---6---10-8---9-----13-11---9----13-11---|
G|----5----------5----------8-------------8------------|
D|----7----------7----------10------------10-----------|
A|----5----------5----------8-------------8------------|
E|-----------------------------------------------------|

Intro:
 Cm7 - Cm7 - Bb7 - Bb7 - Dm7 - Dm7 - Fm7 - Fm7
Verse 1:
 Cm7           Cm7
He is my King, he is my one
 Bb7                Bb7
Yes he's my father, yes he's my son
 Dm7               Dm7
I can talk to him, cuz he understands
 Fm7                        Fm7
Everything I go through and everything I am
     Cm7                Cm7
He's my support system, I can't live without him
    Bb7               Bb7
The best thing since sliced bread,
   Dm7                 Dm7
Is his kiss, his hugs, his lips, his touch
    Fm7                         Fm7
And I just want the whole world to know, about my..

Chorus:
 Cm7          Cm7        Bb7            Bb7
Black Brotha, I love ya, I will never - try to hurt ya
 Dm7       Dm7           Fm7                   Fm7
I want ya, to know that, I'm here for you - forever true cuz you're my
 Cm7          Cm7            Bb7           Bb7
Black Brotha, strong brotha, there is no - one above ya
 Dm7       Dm7           Fm7                   Fm7
I want ya, to know that, I'm here for you - forever true

Verse 2:
 Cm7
He's misunderstood, 
 Cm7               Bb7           Bb7
some say that he's up to no good around the neighborhood
 Dm7                   Dm7            Fm7                    Fm7
But fo' your information - alot of my brothas got education 
(now check it)
 Cm7                          Cm7
You got ya wallstreet brotha, ya blue collar brotha, 
 Bb7                            Bb7
Your down for whatever chillin' on the corner brotha
 Dm7                    Dm7                 Fm7
A talented brotha, and to everyone of ya'll behind bars
              Fm7
You know that Angie loves ya

[Chorus]

Bridge:
 Cm7                    Cm7
You mean so much to me, you give me what I need, 
 Bb7                 Bb7
I'm so proud of you (I said I'm so proud of you)
 Dm7                           Dm7
I love you for stayin' strong, you got it goin' on
 Fm7                 Fm7
I'm so proud of you (I'mmmmmmmmm)
 Cm7                          Cm7
Going through thick and thin, brothas you gonna win
 Bb7                 Bb7
I'm so proud of you (I said I'm so proud of you)
 Dm7                       Dm7
Whenever you facin' doubt, brothas gon' work it out
 Fm7                 Fm7
I'm so proud of you (I got unshakable faith in ya)

[Chorus] - two times

Outro:
 Cm7 - Cm7 - Bb7 - Bb7 - Dm7 - Dm7 - Fm7 - Fm7
Ohhhhh, ohhhh ohhhhh uh uh uh uh
Добавлено: 12.06.2012
Другие материалы по этой песне:
  • Аккорды и текст

Страница создана 18.03.2012
http://primanota.ru/angie-stone/brotha-chords.htm
Привет, Гость.
Предлагаем пройти революционный курс по гитаре.
Подарок от PrimaNota.Ru, забирай!