PrimaNota.ru - самый крупный в мире бесплатный архив песенных текстов, аккордов, табулатур и нот


Anggun - Undress Me - аккорды и текст, видео

Регистрация Запомнить меня
Войти через:  Facebook Google Twitter Vk Yandex Mail.ru

Anggun - Undress Me - аккорды и текст, видео

Печатать
Просмотров: 149
Undress Me
Anggun



Date: Wed, 27 Jul 2005 15:36:53 +0200
From: Enrico 
Subject: a/anggun/undress_me.crd

Artist: Anggun
Song: Undress Me
Album: Luminescence
 

tabbed by: Xillion
tabbing date: July 27th, 2005
 
tuning: EADGBE
 
chorus and verses: Em C D Am
bridge: C D
 

intro:
 
2x
 
    Em            C            D                 Am  
E-|-------2-3-----------2-3----------0-2-3-2-0---0---
B-|--------------------------------3-----------3-----
G-|-------------------0----------2-------------------
D-|-----2-----------2----------0---------------------
A-|---2-----------3----------------------------------
E-|-0------------------------------------------------
 
1x
    Em            C            D             Am  
E-|-------2-3-----------2-3----------0-2-------------
B-|--------------------------------3-----1-0---------
G-|-------------------0----------2-----------2-0-----
D-|-----2-----------2----------0-----------------2-0-
A-|---2-----------3----------------------------------
E-|-0------------------------------------------------
 

(chords for chorus and verses: Em C D Am)
 
Verse:
When I can't see right in your eyes
When I'm surrounded in the craziness of time
When you're understanding, is trying hard to stand still
When I wear layers of my pride, you should
 
Chorus:
Undress me, undress me
Unlock this chain and set me free
Remind me to be myself
Undress me, undress me
Unleash my heart and make me see
When I become someone else
 
Verse:
Whenever I'm trapped in this tide
When I forgotten that there is you and I
When your persuasion is fighting in a blindfold
when I wear my bad moods to my mouth, you should
 
Chorus:
Undress me, undress me
Unlock this chain and set me free
Remind me to be myself, myself
Undress me, undress me
Unleash my heart and make me see
When I become someone else
 
(chords for bridge: C D)
Bridge:
Like a rose without its thorn
Like a bird without a song
Like the fire without the flame
If there's a painless love, we wouldn't be the same
 
Chorus:
Undress me, undress me
Unlock this chain and set me free
Remind me to be myself, my self
Undress me, undress me
Unleash my heart and make me see
When I become someone else
 
Chorus:
Undress me, undress me
Unlock this chain and set me free
Remind me to be myself
Undress me, undress me
Unleash my heart and make me see


Добавлено: 26.12.2013
Другие материалы по этой песне:
  • Аккорды и текст

Страница создана 25.03.2012
http://primanota.ru/anggun/undress-me-chords.htm
Привет, Гость.
Предлагаем пройти революционный курс по гитаре.
Подарок от PrimaNota.Ru, забирай!