PrimaNota.ru - самый крупный в мире бесплатный архив песенных текстов, аккордов, табулатур и нот


Angels - Rhythm Rude Girl - текст песни, таба, видео

Регистрация Запомнить меня
Войти через:  Facebook Google Twitter Vk Yandex Mail.ru

Angels - Rhythm Rude Girl - текст песни, таба, видео

Печатать
Просмотров: 160
------------------------------------------------------------------------------|
------------------------------------------------------------------------------|
------------------------------------------------------------------------------|
------------------------------------------------------------------------------|
--------------------------------------------------5-7-------------------------|
----------------------------------------0-3-5-5/7-----5\3-0-------------------|
  Intro E7   A    E7    A      E7

------------------------------------------------------------------------------|
-15---------------------15------------14--------------------------------------|
-14b16------------------14---------------12b----------------12----------------|
---------------------------------------------14-14-------12----14-12----------|
---------------------------------------------------12-14-------------14-12\10-|
------------------------------------------------------------------------------|
 Riff (play 7 times)    (play 6 times)

------------------------------------------------------------------------------|
------------------------------------------------------------------------------|
------------------------------------------------------------------------------|
------------------------------------------------------------------------------|
-----------------2-4-5-4-2----------2-4-5-4-----------------------------------|
--12\0-------3-4-----------0--0-3-4---------3---------------------------------|
 (repeat)

------------------------------------------------------------------------------|
------------------------------------------------------------------------------|
------------------------------------------------------------------------------|
------------------------------------------------------------------------------|
-5-4------------------------0-2------------5-4--------------------0-2---------|
-0-0------------------------0-0------------0-0--------------------0-0---------|
 Show me that rhythm show me   body talk      no
inhibitions no reserve at

------------------------------------------------------------------------------|
------------------------------------------------------------------------------|
------------------------------------------------------------------------------|
------------------------------------------------------------------------------|
--------------2-5-4/5-4------------------------0-2----------------------------|
----2p0-2h4/5-----0---0------------------------0-0----------------------------|
 all                    She's electric she just
seems to feel it She got

---------------------------------------------9--------------------------------|
------------------------------------------------------------------------------|
---------------------------------------11b13---13r11p9------------------------|
-------------------------------------------------------11-9-------------------|
-5-4--------------------------------------------------------5-4---------------|
-0-0--------------------------------------------------------0-0---------------|
    soul affection in the way she walk
Turn into

------------------------------------------------------------------------------|
------------------------------------------------------------------------------|
------------------------------------------------------------------------------|
------------------------------------------------------------------------------|
-----------------0-2-------------5-4------------------------------------------|
-----------------0-0-------------0-0------------------------------------------|
 liquid With her    legs on fire      Gold and
Feathers hanging by a thread

------------------------------------------------------------------------------|
------------------------------------------------------------------------------|
------------------------------------------------------------------------------|
------------------------------------------------------------------------------|
------------------------------------------------------------------------------|
------------------------------------------------------------------------------|
 Fuel for fantasy Smoother than an angel Sweat
fed dancer, (D) born (G)and

------------------------------------------------------------------------------|
------------------------------------------------------------------------------|
------------------------------------------------------------------------------|
------------------------------------------------------------------------------|
------------------------------------------------------------------------------|
------------------------------------------------------------------------------|
 (G) bred    (E)  She's so (E) out (A) of reach
Baby (G) I  can

------------------------------------------------------------------------------|
----------------------------------------------3-------------------------------|
----------------------------------------------0-------------------------------|
----------------------------------------------4-------------------------------|
----------------------------------------------0---------------------------5-7-|
----------------------------------------------------------------0-3-5-5/7-----|
 learn what (D) you can (G) teach (A) She's a
rhythm rude girl

-------|------------|-------|------|-------|----------------------------------|
-------|------------|-------|------|-------|--------------------------------7-|
-------|------------|-------|------|-------|----------------------------7-9---|
-------|5-7---------|-------|------|-------|--------------5-7---5-7-7/9-------|
-------|------------|-------|------|-------|----------5-7-----7---------------|
-5\3-0-|------------|-------|------|-------|0-3-5-5/7-------------------------|
       (second time)   riff   verse  chorus

----------------------------------------------14-15----15----15---------------|
-8-7---7/9--------------------------2/7----------15b17-15b17-15-15------------|
-----------9-------9--------------2-2/7--7/11-------------------14b16r14--12--|
---------------7/9---6-6-7-4\-4-5---------------------------------------------|
------------------------------------------------------------------------------|
------------------------------------------------------------------------------|
    lead break

-----------------|----------------------------------|-------------------------|
-15----15-12\\---|---8---10-10b11-10b12-10b12r10-8--|---8---10-10b11-10b12-8--|
-14b16-14-12\\---|-9---9---------------------------9|-9---9-------------------|
-----------------|----------------------------------|-------------------------|
-----------------|----------------------------------|-------------------------|
-----------------|----------------------------------|-------------------------|
                   riff

-----------------9---10------------|------------------------------------------|
-------------------8b---8b---------|------------------------------------------|
---------------9----------9--------|--7\-----9----11b------9----11b------9----|
-----------------------------------|----9/11---11-----9h11---11-----9h11------|
-----------------------------------|------------------------------------------|
-----------------------------------|------------------------------------------|
 repeat riff section and play this second time

------------------------------------|-----------------------------------------|
-8-10-8---8-8-8---------------------|-----------------------------------------|
-7-7--7---7-9-7---------9---11b12-9-|-----------------------------------------|
--------------------7/9---9---------|-----------------------------------------|
------------------------------------|-----------------------------------------|
------------------------------------|-----------------------------------------|
                                        repeat
previous section

--------------------------10-------12------12-------12----12----12----12------|
--------------------10/12----12b14---12b14----12b14----14----14----14----14---|
-------9----12-9-12-----------------------------------------------------------|
--9h11---11-------------------------------------------------------------------|
------------------------------------------------------------------------------|
------------------------------------------------------------------------------|
                                 Use wammy bar
here

-12-------------------------------------------------|--------------------|----|
-------------------------17-17----17-------------7--|--------------------|----|
---------4p2-4/7-/-18-18-------18------4p2-4-7b9----|-4-\\4-4-\\4-\\4----|5b7-|
----------------------------------------------------|--------------------|----|
----------------------------------------------------|--------------------|----|
----------------------------------------------------|--------------------|----|

repeat with wammy

----------------------------------------19b21-19b21--21r19-17----19h21-19-----|
--------------------------------------------------------------20--------------|
------------------------------------------------------------------------------|
------------------------------------------------------------------------------|
-------2-4-5-4-2---------2-4-5-4----------------------------------------------|
-0-3-4-----------0-0-3-4---------3--------------------------------------------|


-19b21-19b21-19b21-21r19-17---------------------------------------------------|
----------------------------20-17-20-17----17---12b14-12b14-12b15-12b15-------|
----------------------------------------19------------------------------------|
------------------------------------------------------------------------------|
------------------------------------------------------------------------------|
------------------------------------------------------------------------------|


----------------9-10-11-12-14---19r17p14-17b19--19r17p14-17b19--19r17p14------|
-12b15p12-12b14---------------------------------------------------------------|
------------------------------------------------------------------------------|
------------------------------------------------------------------------------|
------------------------------------------------------------------------------|
------------------------------------------------------------------------------|


-17b19---------------------------------------|--------------------------------|
-------19b21-19b21--19b21--19b21r19-17-19-17-|--------------------------------|
---------------------------------------------|--------------------------------|
---------------------------------------------|--------------------------------|
---------------------------------------------|--------------------------------|
---------------------------------------------|--------------------------------|

She's so out of reach, etc.
Добавлено: 21.06.2012
Другие материалы по этой песне:
  • Аккорды и текст

Страница создана 24.03.2012
http://primanota.ru/angels/rhythm-rude-girl-chords.htm
Привет, Гость.
Предлагаем пройти революционный курс по гитаре.
Подарок от PrimaNota.Ru, забирай!