PrimaNota.ru - самый крупный в мире бесплатный архив песенных текстов, аккордов, табулатур и нот


Angels & Airwaves - Start The Machine Live - таба, видео

Регистрация Запомнить меня
Войти через:  Facebook Google Twitter Vk Yandex Mail.ru

Angels & Airwaves - Start The Machine Live - таба, видео

Печатать
Просмотров: 80
Angels and Airwaves
Start the Machine Live Tab
Capo 2
Tabbed by: adoreizi
*Notes not based off capo on 2nd fret

Based off of live version: https://www.youtube.com/watch?v=iGbhUEmIVZk
And help from Youtube user's Gejza Szabo's Start the Machine Live Cover

I have always loved this version with the long instrumental outro so I decieded to try and tab. Probably
isn't perfect so please rate and comment to improve it!


Intro
0:00-0:18
e|-11-9-9------11------11-9-9-----12---------------------|
B|----------12--12---------------12--12------------------|
G|--------------------11~------------------11~-----------|
D|-------------------------------------------------------|
A|-------------------------------------------------------| x2
E|-------------------------------------------------------|

Intro 2
0:18-0:37
e|-7---7---7---7-6-9---9---9---9-6------------|
B|--------------------------------------------|
G|--------------------------------------------|
D|--------------------------------------------|
A|--------------------------------------------|
E|--------------------------------------------| x3

Verse (bass notes)
0:37-1:02
e|-------------------------------------------------------------|
B|-------------------------------------------------------------|
G|-------------------------------------------------------------|
D|-------------------------------------------------------------|
A|-88888888-99999999-44444444----------------------------------|
E|----------------------------44444444-------------------------|

Chorus
1:02-1:22
e --------------------------------------------|
B --------------------------------------------|
G --------------------------------------------|
D --4----2----7----7----4----7----------------|
A --4----2----7----7----4----7----------------|
E --2----0----5----4----2----4----------------|


Intro 2
1:22-1:35
e|-7---7---7---7-6-9---9---9---9-6------------|
B|--------------------------------------------|
G|--------------------------------------------|
D|--------------------------------------------|
A|--------------------------------------------|
E|--------------------------------------------| x3

Verse (bass notes)
1:35-2:00
e|-----------------------------------------------------------|
B|-----------------------------------------------------------|
G|-----------------------------------------------------------|
D|-----------------------------------------------------------|
A|-88888888-99999999-44444444--------------------------------|
E|----------------------------44444444-----------------------|

Chorus
2:00-2:19
e --------------------------------------------|
B --------------------------------------------|
G --------------------------------------------|
D --4----2----7----7----4----7----------------|
A --4----2----7----7----4----7----------------|
E --2----0----5----4----2----4----------------|


Bridge
2:19-3:37
e ------------------------------------------|
B ------------------------------------------|
G ----11-11------------11-11-----9----------|
D ------------999-xxxx---------99-----------|   X2
A ------------------------------------------|
E ------------------------------------------|

e ----------------------------------------------------|
B ----------------------------------------------------|
G ----11-11------------11-11-----9-8h9----------------|
D ------------999-xxxx---------99-------11------------|
A ----------------------------------------------------|
E ----------------------------------------------------|

e -----------------------------------------------|
B -----------------------------------------------|
G ----11-11------------11-11-----9----9----------|
D ------------999-xxxx---------99----9-----------|
A -----------------------------------------------|
E -----------------------------------------------|

Outro 1
3:45-4:02
e ------------------------------------------------|
B ------------------------------------------------|
G ------------------------------------------------|
D -------9----------------------------------------|
A -------9----------------------------------------|
E --pm---7----------------------------------------|

Outro 2 Harmonics
4:02-4:34
e -----------------------------------------------------------------|
B -----------------------------------------------------------------|
G -----------------------------------------------------------------|
D -----------------------------------------------------------------|
A ---------------14------------------------------------------------|  X5
E -15--9------15---------------------------------------------------|

Harmonics
e ----------------------------------------------------------------|
B ----------------------------------------------------------------|
G ----------------------------------------------------------------|
D ----------------------------------------------------------------|
A ----------------------------------------------------------------|
E -15--9----------------------------------------------------------|

Outro 3
4:34-4:53
e ------------------------------------------------------------------|
B ------------------------------------------------------------------|
G ------------------------------------------------------------------|
D --------------8h9-11-8---11/13------------------------------------|
A -------15h--------------------------------------------------------|  X5
E -0-15h------------------------------------------------------------|

e ------------------------------------------------------------------|
B ------------------------------------------------------------------|
G ---------------------------11-9-8---------------------------------|
D --------------8h9-11-8-----------9--------------------------------|
A -------15h--------------------------------------------------------|
E -0-15h------------------------------------------------------------|

Outro 4
4:53-5:12
e ------------------------------------------------------------|
B ------------------------------------------------------------|
G -11/9-8-8-89----11/9-8-8-89--8------------------------------|
D ------------9------------------9----------------------------|
A ------------------------------------------------------------| X3
E ------------------------------------------------------------|

Outro 5 Harmonics
5:12-5:32
e ------------------------------------------------------------------|
B ------------------------------------------------------------------|
G ------------------------------------------------------------------|
D ------------------------------------------------------------------|
A --9--------------------14h-----------------14h--------------------|
E -----15h-9h--------15h-------15h-9h----15h-------15h-9h-----------|

Outro 6
5:32-5:45
e ------------------------------------------------------------------|
B ------------------------------------------------------------------|
G ------------------------------------------------------------------|
D --88--999999--8--8------------------------------------------------|
A --88--999999--8--6------------------------------------------------| X8
E --66--777777--6--x------------------------------------------------|

Outro 7
5:45-6:40
e ----------------------------------------------------------------------------|
B ----------------------------------------------------------------------------|
G --9-----------10--11--12---13---14--15----16---17---------------------------|
D --x------------x---x----x---x----x---x-----x----x---------------------------|
A --7------------8---9---10---11---12---13---14---15--------------------------|
E --x-------------------------------------------------------------------------|


Outro 8
6:40
e -------------------------------------------------------------------------|
B -------------------------------------------------------------------------|
G -------------------------------------------------------------------------|
D ------------------2------------------------------------------------------|
A ------------------2------------------------------------------------------|
E -pick slide-------0------------------------------------------------------|

Cheers
Добавлено: 21.11.2015
Другие материалы по этой песне:
  • Аккорды и текст

Страница создана 21.11.2015
http://primanota.ru/angels-and-airwaves/start-machine-live-chords.htm
Привет, Гость.
Предлагаем пройти революционный курс по гитаре.
Подарок от PrimaNota.Ru, забирай!