PrimaNota.ru - самый крупный в мире бесплатный архив песенных текстов, аккордов, табулатур и нот


Angels & Airwaves - Star Of Bethlehem - таба, бас-таба, видео

Регистрация Запомнить меня
Войти через:  Facebook Google Twitter Vk Yandex Mail.ru

Angels & Airwaves - Star Of Bethlehem - таба, бас-таба, видео

Печатать
Просмотров: 156
Авторы музыки: Tom DeLonge
Авторы текста: Tom DeLonge
I bet a lot of you people have been waiting for this song. I love this song so much. It 
me about 5 times listening to it to get some of the stuff. so here you go, and I hope 
enjoy.

Organ type thing starts out the song.

Organ tabbed out also later played with digital delays at approx. 2 min

E|-----------------------------------|
B|-----------------------------------|
G|-----------------------------------|
D|--11---7------9---7------9--11--7--|
A|-----------------------------------|
E|-----------------------------------|

At Approx. 3:09 min start this: you know how it goes

E|-------------------------------------|
B|-------------------------------------|
G|--9-9--6-6-7-6-----------------------|
D|--7-7--7-7-7-7-7---------------------|
A|--0-0--0-0-0-0-0---------------------|
E|-------------------------------------|
                                             
At 4:00 min start with this:                    
                                                
E|-5555555555555555--5555555555555555--5555555555555555--5555555555555555-|
B|-2222222222222222--3333333333333333--5555555555555555--3333333333333333-|
G|------------------------------------------------------------------------|
D|------------------------------------------------------------------------|
A|------------------------------------------------------------------------|
E|------------------------------------------------------------------------|

This weird palm muted thing with digital delay and dead note type things.

At approx. 4:15 min start this and repeat this for the whole verse

P.M.....................................................................
E|-----------------|----------------|----------------|-----------------|
B|-----------------|----------------|----------------|-----------------|
G|-----------------|-4-4-4-4-4-4-4-4|-6-6-6-6-6-6-6-6|-7-7-7-7-7-7-7-7-|
D|--7-7-7-7-7-7-7-7|-7-7-7-7-7-7-7-7|-7-7-7-7-7-7-7-7|-7-7-7-7-7-7-7-7-|
A|-----------------|----------------|----------------|-----------------|
E|-----------------|----------------|----------------|-----------------|

Repeat 2 times

E|--0-5---0-7---0-5----------------0-5---9-5----------------------|
B|---------------------5---3---2----------------5---3--2----------| 
G|-------------------2---2---2----------------2---2---2-----------|
D|----------------------------------------------------------------|
A|----------------------------------------------------------------|
E|----------------------------------------------------------------|

End in chorus

at very end there's a weird thing thats like this

e|--5-0-5-7-4-0-5-0-5-7-4-0-4-5|   Reapeat a lot...fade until the end.



THANK YOU!!!!!!!!!
Добавлено: 12.05.2012
Другие материалы по этой песне:

Страница создана 25.04.2012
http://primanota.ru/angels-and-airwaves/star-of-bethlehem-chords.htm
Привет, Гость.
Предлагаем пройти революционный курс по гитаре.
Подарок от PrimaNota.Ru, забирай!