PrimaNota.ru - самый крупный в мире бесплатный архив песенных текстов, аккордов, табулатур и нот


Angels & Airwaves - My Only Fear - текст песни, таба, видео

Регистрация Запомнить меня
Войти через:  Facebook Google Twitter Vk Yandex Mail.ru

Angels & Airwaves - My Only Fear - текст песни, таба, видео

Печатать
Просмотров: 132
Hi guys!
Here is another great song of the upcoming Angels and Airwaves album I-Empire.
I tried to tab all the main parts of the song.
Listen to it to combine them.
I don't know if everything is correct/ correct me.
Have fun :-)


(p) Pull Off
(v) Vibrato


INTRO

1st Guitar (Muted at the beginning)

E|--5p0--0--0--5p0--0--0--4p0--0--0--4p0--0--0--2p0--0--0--2p0--0--0--2p0--0--0--2p0--0--0--|
B|------------------------------------------------------------------------------------------|
G|------------------------------------------------------------------------------------------|
D|------------------------------------------------------------------------------------------|
A|------------------------------------------------------------------------------------------|
E|------------------------------------------------------------------------------------------|


2nd Guitar (also played during the verse befor chorus)

E|--4--------4--------4-----5--------5--------5-----2--------2--------2--------2--------2--------2--------|
B|-----5--------5--------5-----5--------5--------5-----5--------5--------5--------5--------5--------5-----|
G|--------4--------4--------------4--------4--------------4--------4--------4---------4--------4----------|
D|--------------------------------------------------------------------------------------------------------|
A|--------------------------------------------------------------------------------------------------------|
E|--------------------------------------------------------------------------------------------------------|


3rd Guitar (only one not is played)

E|-----------------|
B|--2/5v--v--v-----|
G|-----------------|
D|-----------------|
A|-----------------|
E|-----------------|


Rythm Guitar

E|----------------------|
B|----------------------|
G|--1--1--2----------1--|
D|--2--2--2----4--4--2--|
A|--2--2--2----2--2--2--|
E|--0--0--0----0--0--0--|

VERSE

1st Guitar
E|----------------------|
B|-----5-------7--5-----|
G|--4-------4-----------|
D|----------------------|
A|----------------------|
E|----------------------|


2nd Guitar Strumming

E|----------|
B|----------|
G|--9----8--|
D|--9----9--|
A|--7----9--|
E|-------7--|

Chorus

1St Guitar
E|--0-----0--0----|
B|--0-----0--0----|
G|--9--6--6--6----|
D|--9--7--6--7----|
A|--7--7--4--7----|
E|-----5-----5----|

2nd Guitar
E|--7--------7--------7-----5----|-----|
B|-----5--------5--------5-------|-----|
G|--------4--------4-------------|-----|
D|-------------------------------|-----|
A|-------------------------------|-----|
E|-------------------------------|-----|


Lyrics

There's a little black dark scar tire divide
This is it, can you hear me?
Have you ever felt a shattered heart buried alive?
You can do almost anything
There's a little red bridge with the view of the sun with a lake
Recommends such a setting sight
And the thousands of stars come out thousands of times
We can go, only if you believe.

Only if you believe.

Do you feel like you've lost everything you can lose?
This is it, can you hear me?
When you cry do your tears ever choke the room?
Calling out every moment of need.
Do you ever lay awake with a look in the eyes?
Oh God, if a wish is too big to deny
I will offer a line, and it's ready for use.
Let me know, are you ready for me?

I'd like to say that you're my only fear
And when I dream, it slowly disappears
And when I wake, I'm right here by your side
To feel your heart beat in and out of time

When the storm brings rain, snow, fate of all kinds
You can feel almost anything
When the day seems to melt, fall flat in the night
You can feel almost anything.
When you can't get up, you gotta get up and try
This is it, can you feel me?
When the bombs come down, you will make it alive
If you only, if you wanna believe.

I'd like to say that you're my only fear
And when I dream, it slowly disappears
And when I wake, I'm right here by your side
To feel your heart beat in and out of time.

I'd like to say that you're my only fear
And when I dream, it slowly disappears
And when I wake, I'm right here by your side
To feel your heart beat in and out of time

Out of time...
When I dream...
You're my only...
When I dream...
I feel your heart...
When I dream...
I'm out of time...
I feel your heart...
When I dream...
I'm out of time...

I feel your heart

I'd like to say that you're my only fear
And when I dream, it slowly disappears
And when I wake, I'm right here by your side
To feel your heart beat in and out of time
Добавлено: 22.05.2012
Другие материалы по этой песне:
  • Аккорды и текст

Страница создана 22.05.2012
http://primanota.ru/angels-and-airwaves/my-only-fear-chords.htm
Привет, Гость.
Предлагаем пройти революционный курс по гитаре.
Подарок от PrimaNota.Ru, забирай!