PrimaNota.ru - самый крупный в мире бесплатный архив песенных текстов, аккордов, табулатур и нот


Angels & Airwaves - I-empire - таба, видео

Регистрация Запомнить меня
Войти через:  Facebook Google Twitter Vk Yandex Mail.ru

Angels & Airwaves - I-empire - таба, видео

Печатать
Просмотров: 113
                         Angels And Airwaves tabs album
                                 top taps





1.Call To Arms

2.everythings magic

3.breathe

4.love like's rockets

5.sirens

6.secret crowds

7.star of bethlehem

8.true love

9.lifeline

10.jumping rooftops

11.rite of spring

12.heaven






                           Call to Arms
                             

	
Tuning: Standard


-Intro Part One-


Rhythm Effect: Rhythm Figure 1
e|--5-0-0-0-5-0-0-0-4-0-0-0-4-0-0-0-2-0-0-0-2-0-0-0-0-0-0-0-2-0-0-0--|
b|-------------------------------------------------------------------|
g|-------------------------------------------------------------------|
d|-------------------------------------------------------------------|
a|-------------------------------------------------------------------|
E|-------------------------------------------------------------------|
				*played 2 times while fading in


-Intro Part Two-


Rhythm Effect: Rhythm Figure 1
		*played 8 times

Guitar 1: Rhythm Figure 2 (slight dist. w/ delay) 
e|--------------------------------------------------------|
b|--------------------------------------------------------|
g|--------------------------------------------------------|
d|--------------------------------------------------------|
a|--11-11-7-7------------------9-9-7-7--------------------|
E|--0--0—-0-0-0000000000000000-0-0-0-0-0000000000000000---|
               Pm------------|          Pm------------|
				*played 4 times

Guitar 2: Riff A (slight dist. w/ delay)
e|-------------------------------------------------------------------|
b|--5555555555555555555555555555555555555555555555555555555555555555-|
g|-------------------------------------------------------------------|
d|-------------------------------------------------------------------|
a|-------------------------------------------------------------------|
E|-------------------------------------------------------------------|
	*begins after Rhythm Figure 1 is played twice; play 1 time
                      all the way through and then continue into Riff B

Guitar 2: Riff B (slight dist. w/ delay)
e|--4--4--4--5--5--5--------------------------------------|
b|---5--5--5--4--4--4-7-7-5---7-7-5---7-7-5---7-7-5---5---|
g|----4--4-----4--4---------4-------4-------4-------4---4-|
d|--------------------------------------------------------|
a|--------------------------------------------------------|
E|--------------------------------------------------------|
			*played 4 times after Riff A

-Verse-


Rhythm Effect: Rhythm Figure 1
		*played 4 times


Guitar 1: Rhythm Figure 3 (slight dist. w/ delay)
e|--------------|
b|--------------|
g|--9-9---9-9---|
d|--9-9---9-9---|
a|--7-7---7-7---|
E|--0-0---0-0---|
		*played 4 times; played at the beginning of Rhythm	                
            Figure 4 each time played

Guitar 2: Rhythm Figure 4 (clean w/ delay)
e|--------------------------------------|
b|--5555555555555555/77777777\44444444--|
g|--------------------------------------|
d|--------------------------------------|
a|--------------------------------------|
E|--------------------------------------|
		*played 4 times


-Break-


Guitar 1: Rhythm Figure 3 (slight dist. w/ delay)
		*played 2 times; played at the beginning of Riff B each time
                 played

Guitar 2: Riff B (slight dist. w/ delay)
		*played 2 times


-Verse-


Rhythm Effect: Rhythm Figure 1
		*played 4 times

Guitar 1: Rhythm Figure 3 (slight dist. w/ delay)
           *played 4 times; played at the beginning of Rhythm	                
            Figure 4 each time played

Guitar 2: Rhythm Figure 4 (clean w/ delay)
		*played 4 times


-Chorus-


Guitar 1: does not play

Guitar 2: Rhythm Figure 5 (clean w/ delay)
e|--7--7--7--7---5--5--5--5---4--4--4--4---5--5--5--5-----|
b|---5--5--5--5—5-5--5--5--5-5-5--5--5--5-5-5--5--5--5-5--|
g|----4--4--4--4---4--4--4--4---4--4--4--4---4--4--5--5---|
d|--------------------------------------------------------|
a|--------------------------------------------------------|
E|--------------------------------------------------------|
		*played 2 times


-Break-


Rhythm Effect: Rhythm Figure 1
		*played 3 times

Guitar 1: Rhythm Figure 2 (slight dist. w/ delay) 
 		*begins after Rhythm Figure 1 is played once and is then
                 played 1 time


-Verse-


Rhythm Effect: Rhythm Figure 1
		*played 4 times

Guitar 1: Rhythm Figure 3 (slight dist. w/ delay)
     *begins after Rhythm Figure 1 is played twice; played at the    
      beginning of Rhythm Figure 4 each time played;
      played 2 times in all


Guitar 2: Rhythm Figure 4 (clean w/ delay)
		*played 2 times after Rhythm Figure 1 is played twice


-Chorus-


Guitar 1: does not play

Guitar 2: Rhythm Figure 5 (clean w/ delay)
		*played 4 times


-Break-


Rhythm Effect: Rhythm Figure 1
		*played 6 times

Guitar 1: Rhythm Figure 2 (slight dist. w/ delay) 
		*played 3 times

Guitar 2: Riff B (slight dist. w/ delay)
		*played 2 times after Rhythm Figure 1 is played four times


-Bridge- 


Guitar 1: does not play

Guitar 2: Rhythm Figure 5 (clean w/ delay)
		*played 2 times


-Chorus-


Guitar 1: does not play

Guitar 2: Rhythm Figure 5 (clean w/ delay)
		*played 2 times


-Outro-


Rhythm Effect: Rhythm Figure 1
		*played 3 – 4 times while fading out

Guitar 1: does not play

Guitar 2: Riff C (clean w/ delay)
e|--7-7-5-5--4-4-5-5--7-7-5-5--4-4-5-5--5--5-5--4-4-5-5---4----------|
b|--5-5-5-5--5-5-5-5--5-5-5-5--5-5-5-5--5-----------5---5------------|
g|-------------------------------------------------------------------|
d|-------------------------------------------------------------------|
a|-------------------------------------------------------------------|
E|-------------------------------------------------------------------|
		*played 1 time while fading out







----------------------------------------------------------------------------
----------------------------------------------------------------------------


                    everythings magic

Intro

E|------------------------------------------------------------------------||
B|-8-------6-------5-------6---------8-------6-------5-------6------------||
G|---5---5---5---5---5---5---5---5-----5---5---5---5---5---5---5---5------||
D|-----7-------7-------7-------7---7-----7-------7-------7-------7---7----||
A|------------------------------------------------------------------------||
E|------------------------------------------------------------------------||

E|------------------------------------------------------------------------||
B|-8-------6-------5-------6---------8-------6-------5-------6------------||
G|---5---5---5---5---5---5---5---5-----5---5---5---5---5---5---5---5------||
D|-----5-------5-------5-------5---5-----5-------5-------5-------5---5----||
A|------------------------------------------------------------------------||
E|------------------------------------------------------------------------||

Verse

E|------------------------------------------------------------------------||
B|-8-------6-------5-------6---------8-------6-------5-------6------------||
G|---5---5---5---5---5---5---5---5-----5---5---5---5---5---5---5---5------||
D|-----7-------7-------7-------7---7-----7-------7-------7-------7---7----||
A|------------------------------------------------------------------------||
E|------------------------------------------------------------------------||

E|------------------------------------------------------------------------||
B|-8-------6-------5-------6---------8-------6-------5-------6------------||
G|---5---5---5---5---5---5---5---5-----5---5---5---5---5---5---5---5------||
D|-----5-------5-------5-------5---5-----5-------5-------5-------5---5----||
A|------------------------------------------------------------------------||
E|------------------------------------------------------------------------||

E|------------------------------------------------------------------------||
B|-8-------6-------5-------6---------8-------6-------5-------6------------||
G|---5---5---5---5---5---5---5---5-----5---5---5---5---5---5---5---5------||
D|-----7-------7-------7-------7---7-----7-------7-------7-------7---7----||
A|------------------------------------------------------------------------||
E|------------------------------------------------------------------------||

E|------------------------------------------------------------------------||
B|-8-------6-------5-------6---------8-------6-------5-------6------------||
G|---5---5---5---5---5---5---5---5-----5---5---5---5---5---5---5---5------||
D|-----5-------5-------5-------5---5-----5-------5-------5-------5---5----||
A|------------------------------------------------------------------------||
E|------------------------------------------------------------------------||

Chorus

|---------------------------------||
|--8--8-8-8-8--8-8--6-------------||
|--5--5-5-5-5--5-5--5-------------|| X 16
|---------------------------------||
|---------------------------------||
|---------------------------------||

on the 16th time, just before the chorus ends, it changes slightly, and you play this, 
let the last bit ring

|---------------------------------||
|--8--8-8-8-8--8-8--6--5~~--------||
|--5--5-5-5-5--5-5--5--5~~--------||
|---------------------------------||
|---------------------------------||
|---------------------------------||

Verse

E|------------------------------------------------------------------------||
B|-8-------6-------5-------6---------8-------6-------5-------6------------||
G|---5---5---5---5---5---5---5---5-----5---5---5---5---5---5---5---5------||
D|-----7-------7-------7-------7---7-----7-------7-------7-------7---7----||
A|------------------------------------------------------------------------||
E|------------------------------------------------------------------------||

E|------------------------------------------------------------------------||
B|-8-------6-------5-------6---------8-------6-------5-------6------------||
G|---5---5---5---5---5---5---5---5-----5---5---5---5---5---5---5---5------||
D|-----5-------5-------5-------5---5-----5-------5-------5-------5---5----||
A|------------------------------------------------------------------------||
E|------------------------------------------------------------------------||

E|------------------------------------------------------------------------||
B|-8-------6-------5-------6---------8-------6-------5-------6------------||
G|---5---5---5---5---5---5---5---5-----5---5---5---5---5---5---5---5------||
D|-----7-------7-------7-------7---7-----7-------7-------7-------7---7----||
A|------------------------------------------------------------------------||
E|------------------------------------------------------------------------||

E|------------------------------------------------------------------------||
B|-8-------6-------5-------6---------8-------6-------5-------6------------||
G|---5---5---5---5---5---5---5---5-----5---5---5---5---5---5---5---5------||
D|-----5-------5-------5-------5---5-----5-------5-------5-------5---5----||
A|------------------------------------------------------------------------||
E|------------------------------------------------------------------------||


Chorus

|---------------------------------||
|--8--8-8-8-8--8-8--6-------------||
|--5--5-5-5-5--5-5--5-------------|| X 16
|---------------------------------||
|---------------------------------||
|---------------------------------||

right at the end of the 16th time, the extra notes are added and they ring into the bridge

|---------------------------------||
|--8--8-8-8-8--8-8--6--5~~--------||
|--5--5-5-5-5--5-5--5--5~~--------||
|---------------------------------||
|---------------------------------||
|---------------------------------||

Bridge
(only drums, bass and organ like keyboard)

Chorus/Outro


|---------------------------------||
|--8--8-8-8-8--8-8--6-------------||
|--5--5-5-5-5--5-5--5-------------|| X 16
|---------------------------------||
|---------------------------------||
|---------------------------------||


------------------------------------------------------------------------------
-----------------------------------------------------------------------------

                                breathe



INTRO AND VERSE (0:10) (repeat a few times)
|---5--5--------5--5---------|
|----------------------------|
|----------------------------|
|----------------------------|
|----------------------------|
|----------------------------|

CHORUS GUITAR 1 (1:03) (repeat a few times)
|----------------------------------------------|
|----------------------------------------------|
|-----7--6--5-7--6--5-7--6--5-7--6--5----------|
|----------------------------------------------|
|----------------------------------------------|
|----------------------------------------------|

CHORUS GUITAR 2 (1:03) (repeat a few times)
|----------------------------------------------|
|----2-2-2-2-2-2-2-2---3-3-3-3-3-3-3-3---------|
|----2-2-2-2-2-2-2-2---2-2-2-2-2-2-2-2---------|
|----2-2-2-2-2-2-2-2---0-0-0-0-0-0-0-0---------|
|----0-0-0-0-0-0-0-0---------------------------|
|----------------------------------------------|

INTRO AND VERSE (1:38 ) (repeat a few times)

CHORUS GUITAR 1 AND 2 (2:32) (repeat a few times)

SOLO (3:07) (repeat 2 times)
|---------------------------------------------------------------------|
|---------------------------------------------------------------------|
|----6--6-----6/7----7/9----6/7---7/6-6---6/7---7/9---6/7---7/6-------|
|---------------------------------------------------------------------|
|------------0-------0-------0-----0------0-------0------0-----0------|
|---------------------------------------------------------------------|

CHORUS GUITAR 1 AND 2 (3:43) (repeat a few times)

OUTRO (4:18 ) (alternating P.M.) (repeat a few times)
|-------------------------------------------------------------------------|
|-------------------------------------------------------------------------|
|----22222222222222222-------------222222222222222------------------------|
|----22222222222222222-------------222222222222222------------------------|
|-------------------------------00000---------------------------00000-----|
|-------------------------------------------------------------------------|

OUTRO GUITAR 2 (4:36) (repeat a few times)
|-------------------------------------------------------------------------------|
|----2------4------7-----4-----2-----4-----7-----4------------------------------|
|----2------4------7-----4-----2-----4-----7-----4------------------------------|
|----2------4------7-----4-----2-----4-----7-----4------------------------------|
|----0------2------5-----2-----0-----2-----5-----2------------------------------|
|-------------------------------------------------------------------------------|

FINAL CHORD (5:29)
|-------|
|---2---|
|---2---|
|-------|
|-------|
|-------|

-------------------------------------------------------------------------------
--------------------------------------------------------------------------------


                               love like rockets



INTRO PART 1 (repeat 2 times)
|-5555--2--3333--2--5555--2--3333--2--2222--0--3333--2--2222--0--3333--2---|
|-3333--3--3333--3--3333--3--3333--3--3333--3--3333--3--3333--3--3333--3---|
|--------------------------------------------------------------------------|
|--------------------------------------------------------------------------|
|--------------------------------------------------------------------------|
|--------------------------------------------------------------------------|

INTRO PART 2 (0:31) (repeat a few times)
|----5------3-----3------3-----5-----3------2-----3-------|
|-3--3--3--3--3--2--3--3--3--3--3--3--3--3--3--3----------|
|---------------------------------------------------------|
|---------------------------------------------------------|
|---------------------------------------------------------|
|---------------------------------------------------------|

INTRO PART 3 AND VERSE (1:02) (repeat a few times)
|---5555-5555--5--3333-3333--3--5555-5555--5--3333-3333--3--------|
|---3333-3333--3--3333-3333--3--3333-3333--3--3333-3333--3--------|
|-----------------------------------------------------------------|
|-----------------------------------------------------------------|
|-----------------------------------------------------------------|
|-----------------------------------------------------------------|

INTRO PART 1 (2:18 )

INTRO PART 3 AND VERSE (2:33) (repeat a few times)

INTRO PART 1 (3:19)

SOLO (3:49) (repeat a few times)
|--555-333-22-000-222-----000-222-----------------------|
|---------------------------33-----------3333333333-----|
|-------------------------------------------------------|
|-------------------------------------------------------|
|-------------------------------------------------------|
|-------------------------------------------------------|

INTRO PART 3 AND VERSE (4:05) (repeat a few times

------------------------------------------------------------------------------
------------------------------------------------------------------------------

                              sirens


erse

Guitar 1(bass tabbed for guitar)

E|---------------------------------|
B|---------------------------------|
G|---------------------------------|
D|---------------------------------|
A|----5-5----5-5----5-5----7-7-4---|
E|-3-3-3-/7-7-7--5-5-5--5-5-5-5----|

Guitar 2

E|-------------------------|
B|---------------------77--|
G|-9-7---9-7--9-7----7-77--|
D|-7-7---7-7--7-7----------|
A|-------------------------|
E|-------------------------|


Pre Chorus

E|---------------------|
B|---------------------|
G|-7-7----7-7----7-9---|
D|-x-x----5-5----7-7---|
A|-0-0----0-0----0-0---|
E|---------------------|

Chorus Guitar 1
(long reach here)
E|------------------|
B|------------------|
G|--7----7-----7----|
D|--7----7-----7----|
A|--5----X-----5----|
E|-------3-----7----|


Chorus guitar 2
E|-------------------------|
B|-------------------------|
G|---6-7---7h9-6-7--6-7-9--|
D|--0-7-0-0---0-0-0--0-7---|
A|-------------------------|
E|-------------------------|


Bridge

e|----------------------------------------------------------|
b|----------------------------------------------------------|
G|-14--11--9-----7-7-7-7--7-9-9-5---11-11-12-11-9---5-7-7---|
D|-X---X---X-----x-x-x-x--x-x-x-x---x--x--x--x--x---x-x-x---|
A|-12--9---7-----5-5-5-5--5-7-7-5---9--9--10-9--7---5-7-5---|
E|----------------------------------------------------------|

i added the bridge for the people that wanted it.
Its pretty simple.

and let me know if i forgot something.


EDIT, I JUST FIXED A PROBLEM WITH THE PRECHORUS


--------------------------------------------------------------------------
----------------------------------------------------------------------------

                             secret crowds

  	 Secret Crowds Tab by Angels And Airwaves, www.Ultimate-Guitar.Com

Complimentary "Secret Crowds" ringtone

-------------------------------------------------------------------------------
			     Secret Crowds - Angels And Airwaves
-------------------------------------------------------------------------------
Tabbed by: Nathaniel (NoScOrp)
Email: nighthawk_76@hotmail.com

Tuning: Standard

Intro (As many times as needed i think about 8
e|-----------------------------------------------------|
B|-----------------------------------------------------|
G|-11/-7-7-7/66----------------------------------------|
D|-x-/-x-x-x/xx----------------------------------------|
A|-9-/-5-5-5/44----------------------------------------|
E|-----------------------------------------------------|

Chorus
e|---------------------------------------------------------------------------|
B|---------------------------------------------------------------------------|
G|-7-7-7-7-7-7-7-7-7-7-------------------------------------------------------|
D|-7-7-7-7-7-7-7-7-7-7----7-7-7-7-7---5-5-5-5-5------------------------------|
A|-5-5-5-5-5-5-5-5-5-5----7-7-7-7-7---5-5-5-5-5------------------------------|
E|------------------------5-5-5-5-5---3-3-3-3-3------------------------------|

e|---------------------------------------------------------------------------|
B|---------------------------------------------------------------------------|
G|-7-7-7-7-7-7-7-7-7-7-------------------------------------------------------|
D|-7-7-7-7-7-7-7-7-7-7----7-7-7-7-7---5-5-5-5-5------------------------------|
A|-5-5-5-5-5-5-5-5-5-5----7-7-7-7-7---5-5-5-5-5------------------------------|
E|------------------------5-5-5-5-5---3-3-3-3-3------------------------------|

And Then the intro again
e|------------------------------------------------------------------------------|
B|------------------------------------------------------------------------------|
G|-11/-7-7-7/6-6----------------------------------------------------------------|
D|-x-/-x-x-x/x-x----------------------------------------------------------------|
A|-9-/-5-5-5/4-4----------------------------------------------------------------|
E|------------------------------------------------------------------------------|

And then chorus again..
e|---------------------------------------------------------------------------|
B|---------------------------------------------------------------------------|
G|-7-7-7-7-7-7-7-7-7-7-------------------------------------------------------|
D|-7-7-7-7-7-7-7-7-7-7----7-7-7-7-7---5-5-5-5-5------------------------------|
A|-5-5-5-5-5-5-5-5-5-5----7-7-7-7-7---5-5-5-5-5------------------------------|
E|------------------------5-5-5-5-5---3-3-3-3-3------------------------------|

e|---------------------------------------------------------------------------|
B|---------------------------------------------------------------------------|
G|-7-7-7-7-7-7-7-7-7-7-------------------------------------------------------|
D|-7-7-7-7-7-7-7-7-7-7----7-7-7-7-7---5-5-5-5-5------------------------------|
A|-5-5-5-5-5-5-5-5-5-5----7-7-7-7-7---5-5-5-5-5------------------------------|
E|------------------------5-5-5-5-5---3-3-3-3-3------------------------------|

And then there is a break and then play the chorus and for as long as needed and that is it 
i hope u enjoy it and i hope this sounds alright for you it works for me Thanks :)


| /  slide up
| \  slide down
| h  hammer-on
| p  pull-off
| ~  vibrato
| +  harmonic
| x  Mute note
===============================================================================

                      star of bethlehem and true love


INTRO (repeat a few times)
|-----------------------------|
|-----------------------------|
|----66-22-44-22-44-66-22-----|
|----xx-xx-xx-xx-xx-xx-xx-----|
|----44-00-22-00-22-44-00-----|
|-----------------------------|

INTRO GUITAR 2 (1:01) (repeat a few times) (with reverberation)
|-------------------------------------|
|-------------------------------------|
|---9-9--6-7-6-7----9-9--6-7-6-7------|
|-------------------------------------|
|-------------------------------------|
|-------------------------------------|

PRE-VERSO (1:53) (repeat a few times)
|-------------------------------------------|
|---10--1010--1010--1010--1010101010--------|
|----9----9-9---9-9----9-9----9-9-9-9-9-----|
|----7----7-7---7-7----7-7----7-7-7-7-7-----|
|-------------------------------------------|
|-------------------------------------------|

VERSE (2:08) (repeat a few times)
|-----------------------------------------------|
|-----------------------------------------------|
|-----------------------------------------------|
|----77777777777777777777777777--7777777--------|
|-----------------------------------------------|
|-----------------------------------------------|
P.M |..........................|

PRE-CHORUS (2:38) (repeat a few times)
|--------------------------------------|
|--------------------------------------|
|--9-9--6-7-6-7-----9-9--6-7-6---------|
|--7-7--7-7-7-7-7---7-7--7-7-7-7-------|
|-----------------0----------------0---|
|--------------------------------------|

CHORUS SAME THAT PRE-VERSE (2:53) (repeat a few times)

VERSE (3:08) (repeat a few times)

VERSE 2 GUITAR 2 (3:08) (repeat a few times)
|----------------------------------------|
|----------------------------------------|
|------------------------------6-6-------|
|----7-7-------9-9-7-7--9-9-----7-7~-----|
|---------7-7----------------------------|
|----------------------------------------|

PRE-CHORUS (3:38 ) (repeat a few times)

CHORUS (3:53) (repeat a few times)

BRIDGE (4:23)
|---------------------------------------------9--------------------------|
|------10---12----10--------------------12--10----------------12---10----|
|----9-----9-----9-------9--7--6-----9-----------9--7--6-----9----9------|
|-----------------------7--7--7------------------7--7--7-----------------|
|------------------------------------------------------------------------|
|------------------------------------------------------------------------|

|----------------------9-------------------|
|-------------------12--10-----------------|
|----9--7--6----9-------------9--7--6------|
|---7--7--7------------------7--7--7-------|
|------------------------------------------|
|---------------------------------------.--|

CHORUS (4:53) (repeat a few times)

END (5:53)
|----------------------------------------------------------------------|
|-----------------9-10-9-101010---12-12--9-10-9-101010----12-12--------|
|-----------------------------------9----------------------------9-----|
|----7--7--7-----------------------------------------------------------|
|----7--7--7-----------------------------------------------------------|
|----5--5--5-----------------------------------------------------------|


-----------------------------------------------------------------------------
-------------------------------------------------------------------------------

                                           lifeline


  	 Lifeline Tab by Angels And Airwaves, www.Ultimate-Guitar.Com

Complimentary "Lifeline" ringtone

INTRO (repeat a few times)
|-----10-9----12-12---------9-9--------9-9-9-10-10-10-9----12-12--------9-9---------9-9-9-10-10--|
|-----------10--------10-10------10-10---------------------10--------10-10------10-10------------|
|------------------------------------------------------------------------------------------------|
|------------------------------------------------------------------------------------------------|
|------------------------------------------------------------------------------------------------|
|------------------------------------------------------------------------------------------------|

VERSE (0:37)
|-------------------------------------------------------------------------------------|
|-------------------------------------------------------------------------------------|
|-------------------2-(2)---------------------------------------2-(2)-----------------|
|---4-(4)---2-(2)---------0-(0)----2--2------4-(4)---2-(2)--------0-(0)-----2---------|
|--------------------------------------0----------------------------------------0-----|
|-------------------------------------------------------------------------------------|

PRE-CHORUS (1:03) (repeat a few times) (marked with () repeat x16 and with [] repeat x8 )
|---------------------------------------------------------------------------|
|---10-7-8-10-7-8-10-(10)--[8]-7-8-10-7-8-10-7-8-10-(10)--[8]-7-8-----------|
|-------------------------(7)--[7]----------------------------(7)--[7]------|
|---------------------------------------------------------------------------|
|---------------------------------------------------------------------------|

BRIDGE (1:41)
|-----------------------------------------------------------------------------------------|
|--------------10-(10)-10/3-3---------------------------8-(8)-8/3-3-----------------------|
|----7-(7)------------------------0-(0)---------7-(7)---------------------0-(0)-----------|
|-----------------------------------------------------------------------------------------|
|-----------------------------------------------------------------------------------------|
|-----------------------------------------3-(3)-----------------------------------3-(3)---|

VERSE (2:07)

PRE-CHORUS (2:32) (repeat a few times)

OUTRO (3:11)
|--------------------------------|
|--------------------------------|
|-----7~----6~-----7~------------|
|-----7~----6~-----7~----5~------|
|-----5~----4~-----5~----5~------|
|---------------------------3~---

-----------------------------------------------------------------------------------
----------------------------------------------------------------------------------

                  jumping rooftops and rite of springers



(/) Slide Up  () Slide Down  (h) Hammer On  (p) Pull Off  (b) Bend (r) Release (v) Vibrato

Intro (Flanger Effects, lots)
E|----------------------------|
B|----------------------------|
G|--------4-----6p4-----4-----|
D|----------------------------|
A|--7--7-----7-------7--------|
E|----------------------------|

Verse (Clean)
E|-------------------------------------------------------------------|
B|-------------------------------------------------------------------|
G|-------------------------------------------------------------------|
D|-----9-----9---9-----9-----9---9-----9-----9---9-----9-----9---9---|
A|-7-7---7-7---7---7-7---7-7---7---7-7---7-7---7---7-7---7-7---7-----|
E|-------------------------------------------------------------------|

E|-------------------------------------------------------------------|
B|-------------------------------------------------------------------|
G|-------------------------------------------------------------------|
D|-----9-----9---9-----9-----9---9-----9-----9---9-----9-----9---9---|
A|-0-0---0-0---0---0-0---0-0---0---0-0---0-0---0---0-0---0-0---0-----|
E|-------------------------------------------------------------------|

Chorus Chords
E|--------|
B|--------|
G|--------|
D|--------|
A|-11-9-7-|
E|-9--7-5-|

Chorus Guitar (approximate)
E|----------------------------------------|
B|----------------------------------------|
G|-9-9-9-9-9-9-9-8-9-9-9-9-11-11-11-9-9---|
D|----------------------------------------|
A|----------------------------------------|
E|----------------------------------------|

Bridge Thingy

E|--------------------------------------------------------------------------------|
B|--------------------------------------------------------------------------------|
G|--------------------------------------------------------------------------------|
D|-6-----------------6-----------------7---------------6---7---------------6------|
A|---7-9-7-9-9-9-9-7---7-9-7-9-9-9-9-7---7-9-7-9-9-9-9---7---7-9-7-9-9-9-9--7-----|
E|--------------------------------------------------------------------------------|

Pretty basic, took me 10 minutes.

------------------------------------------------------------------------------------
-----------------------------------------------------------------------------------
                   

                       heaven


Tabbed by: Andy Wareing

Tuning: Standard

| h  hammer-on
| p  pull-off
| ~  vibrato
| x  Mute note

Intro 1

Guitar 1 (Distortion)
e|---------------------------------------------------------------------------|
B|---------------------------------------------------------------------------|
G|---------------------------------------------------------------------------|   x 8
D|------77777----------------------------------------------------------------|
A|------77777----------------------------------------------------------------|
E|------55555----------------------------------------------------------------|

Guitar 2 (Clean)
e|---------------------------------------------------------------------------|
B|---------------------------------------------------------------------------|
G|-------6-6-4---7-6---------------------------------------------------------|   x 14
D|------7-7-7---6------------------------------------------------------------|
A|---------------------------------------------------------------------------|
E|---------------------------------------------------------------------------|

Guitar 3 (Distortion + Delay)
e|---------------------------------------------------------------------------|
B|---------------------------------------------------------------------------|
G|------9-----9-----9---6----7-----6-----------------------------------------|   x 10
D|--------7-7---7-7---7---7-7--7-7---7---------------------------------------|
A|---------------------------------------------------------------------------|
E|---------------------------------------------------------------------------|
          x x   x x   x   x x  x x   x


Intro 2

Guitar 1 (Distortion)
e|---------------------------------------------------------------------------|
B|---------------------------------------------------------------------------|
G|-------999999999666777666--------------------------------------------------|   x 8
D|-------777777777777777777--------------------------------------------------|
A|---------------------------------------------------------------------------|
E|---------------------------------------------------------------------------|

Guitar 2 (Distortion)
e|---------------------------------------------------------------------------|
B|---------------------------------------------------------------------------|
G|------------7~--6~--4~-----------------------------------------------------|   x 1
D|-------7~---7~--7~--4~-----------------------------------------------------|
A|-------7~---5~--4~--2~-----------------------------------------------------|
E|-------5~------------------------------------------------------------------|


Verse 1

Guitar 1 (Distortion)
e|---------------------------------------------------------------------------|
B|---------------------------------------------------------------------------|
G|----99999999777666---------------------------------------------------------|   x 8
D|----77777777777777---------------------------------------------------------|
A|---------------------------------------------------------------------------|
E|---------------------------------------------------------------------------|

Guitar 2 (Distortion)
e|---------------------------------------------------------------------------|
B|---------------------------------------------------------------------------|
G|--------7~------7~---------------------------------------------------------|   x 1
D|----7~--7~--7~--7~---------------------------------------------------------|
A|----7~--5~--7~--5~---------------------------------------------------------|
E|----5~------5~-------------------------------------------------------------|


Chorus

Guitar 1 (Distortion)
e|---------------------------------------------------------------------------|
B|---------------------------------------------------------------------------|
G|---------------------------------------------------------------------------|   x 4
D|------77777----------------------------------------------------------------|
A|------77777----------------------------------------------------------------|
E|------55555----------------------------------------------------------------|

Guitar 2 (Distortion + Delay)
e|---------------------------------------------------------------------------|
B|---------------------------------------------------------------------------|
G|------6666666666644444444442222222221111444111-----------------------------|   x 4
D|---------------------------------------------------------------------------|
A|---------------------------------------------------------------------------|
E|---------------------------------------------------------------------------|
        xxxxxxxxxxxxxxxxxxxxxxxxxxxxxxxxxxxxxxxx


Intro 2

Verse 1

Chorus


Interlude

Guitar 1 (Distortion)
e|---------------------------------------------------------------------------|
B|---------------------------------------------------------------------------|
G|---------------------------------------------------------------------------|   x 1
D|-----7---7h9------7---7h9--------------------------------------------------|
A|---0---7--------0---7------------------------------------------------------|
E|---------------------------------------------------------------------------|

e|---------------------------------------------------------------------------|
B|---------------------------------------------------------------------------|
G|--------------9------------------------------------------------------------|   x 8
D|-----7---7h9----7----------------------------------------------------------|
A|---0---7-------------------------------------------------------------------|
E|---------------------------------------------------------------------------|

Guitar 2 (Distortion)
e|---------------------------------------------------------------------------|
B|---------------------------------------------------------------------------|
G|---------7~----------------------------------------------------------------|   x 1
D|---7~-7~-7~-7~-------------------------------------------------------------|
A|---7~-7~-5~-7~-------------------------------------------------------------|
E|---5~-5~----5~-------------------------------------------------------------|


Verse 2

Guitar 1 (Distortion)
e|---------------------------------------------------------------------------|
B|---------------------------------------------------------------------------|
G|--------------9------------------------------------------------------------|   x 8
D|-----7---7h9----7----------------------------------------------------------|
A|---0---7-------------------------------------------------------------------|
E|---------------------------------------------------------------------------|

Guitar 2 (Distortion)
e|---------------------------------------------------------------------------|
B|---------------------------------------------------------------------------|
G|-----------7--6--4---------------------------------------------------------|   x 1
D|-------7---7--7--4---------------------------------------------------------|
A|-------7---5--4--2---------------------------------------------------------|
E|-------5-------------------------------------------------------------------|

Outro


Guitar 1 (Distortion)
e|---------------------------------------------------------------------------|
B|---10-10-10-10-10-10-10-10-10-10-10-10-10-10-9-9-12-12-12-10-10------------|
G|---------------------------------------------------------------------------|   x 16
D|---------------------------------------------------------------------------|
A|---------------------------------------------------------------------------|
E|---------------------------------------------------------------------------|

Guitar 2 (Distortion)
e|---------------------------------------------------------------------------|
B|---------------------------------------------------------------------------|
G|--------7~------7~---------------------------------------------------------|   x 1
D|----7~--7~--7~--7~---------------------------------------------------------|
A|----7~--5~--7~--5~---------------------------------------------------------|
E|----5~------5~-------------------------------------------------------------|

e|---------------------------------------------------------------------------|
B|---------------------------------------------------------------------------|
G|----------7~--6~--4~-------------------------------------------------------|   x 1
D|-----7~---7~--7~--4~-------------------------------------------------------|
A|-----7~---5~--4~--2~-------------------------------------------------------|
E|-----5~--------------------------------------------------------------------|

===============================================================================


tabs by malik olsen
Добавлено: 14.06.2013
Другие материалы по этой песне:
  • Аккорды и текст

Страница создана 14.06.2013
http://primanota.ru/angels-and-airwaves/i-empire-chords.htm
Привет, Гость.
Предлагаем пройти революционный курс по гитаре.
Подарок от PrimaNota.Ru, забирай!