PrimaNota.ru - самый крупный в мире бесплатный архив песенных текстов, аккордов, табулатур и нот


Angels & Airwaves - Et Ducit Mundum Per Luce - таба, видео

Регистрация Запомнить меня
Войти через:  Facebook Google Twitter Vk Yandex Mail.ru

Angels & Airwaves - Et Ducit Mundum Per Luce - таба, видео

Печатать
Просмотров: 177
Уроки эстрадного вокала в Санкт-Петербурге
-----------------------------------------------------------------------------
               Et Ducit Mundum Per Luce - Angels And Airwaves
-----------------------------------------------------------------------------
Tabbed by: Mike!

  This is the guitar version:
  (AVA is awesome)

Tuning: Normal

Clean..
e|-------8~-----10~-----12~------7~--------8~-----10~-----12~------7~-------|
B|----------8-8-----8-8-----8-8--------------8-8-----8-8-----8-8------------|
G|--------------------------------------------------------------------------|
D|--------------------------------------------------------------------------|
A|--------------------------------------------------------------------------|
E|--------------------------------------------------------------------------|

Slight Distortion.. (slide quickly after holding the 3)
e|----3/8~----3/10~----3/12~----3/7~-----3/8~----3/10~----3/12~----3/7~-----|
B|--------------------------------------------------------------------------|
G|---(0)~-------------------------------------------------------------------|
D|---- (^if you can add this octave G [with chorus/reverb etc]    ----------|
A|----------  it can sound pretty nice)   ----------------------------------|
E|--------------------------------------------------------------------------|

With Distortion/Reverb/Chorus, it sometimes sounds better to play it on lower strings 
b or even g
e|--------------------------------------------------------------------------|
B|---8/13~--8/15----8/17~---8/12~-------------------------------------------|
G|-------------------------------------12/17~---12/19~---12/21~-------------|
D|--------------------------------------------------------------------------|
A|--------------------------------------------------------------------------|
E|--------------------------------------------------------------------------|

Repeat this until the end, play around with delay, chorus, reverb, and add some bass to 
a good sound

end on
e|-----3/8~--------|
B|----(8/13~)------|
G|---(12/17~)------|              This sounds especially good when
D|-----------------|               another guitar is playing it
A|-----------------|                   on a different octave
E|-----------------|


or chords, G C   G D   G E
Добавлено: 21.03.2012
Другие материалы по этой песне:
  • Аккорды и текст

Страница создана 21.03.2012
http://primanota.ru/angels-and-airwaves/et-ducit-mundum-per-luce-chords.htm
Привет, Гость.
Предлагаем пройти революционный курс по гитаре.
Подарок от PrimaNota.Ru, забирай!