PrimaNota.ru - самый крупный в мире бесплатный архив песенных текстов, аккордов, табулатур и нот


Angels & Airwaves - Adventure Live - таба, бас-таба, видео

Регистрация Запомнить меня
Войти через:  Facebook Google Twitter Vk Yandex Mail.ru

Angels & Airwaves - Adventure Live - таба, бас-таба, видео

Печатать
Просмотров: 174
Angels and Airwaves
The Adventure [live on letterman]
Tuning: Standard

My friend really likes this band and turned me onto this song. but i dont really know 
members so i cant be too in detail with whos who.
Guitar 1 Capo on 2nd Fret [E A D G B E] the singer
Guitar 2 Capo on 2nd Fret [E A D G B E] rhythm guitarist
If there are any corrections post them in the comments area


Intro: Guitar 1 Stands very close to their stack amps to produce feedback
e|-----------------------------|---------------------------|
B|-----------------------------|---------------------------|
G|-----------------------------|---------------------------|
D|-----------------------------|---------------------------|
A|-h0~~~~~~~~~~~~~~~~~~~~~~~~~-|-0-0-0-0-0-0-0-0-0-0-0-0-0-|
E|-----------------------------|---------------------------|
PM                            . . . . . . . . . . . . . reverb and delay start to slowly turn on

Guitar 1: HEAVY Delay and LOTS of Reverb
e|-----------------|-----------------|-------------------|--------|
B|o----------------|-----------------|-------------------|-------0|
G|-9-9-9-7-7-7-6-6-|-7-7-7-6-6-6-----|-7-7-7-6-6-6-------|--------|
D|-----------------|-------------7-7-|-------------7-7-9~|--------|
A|o----------------|-----------------|-------------------|-9--8--0|
E|-----------------|-----------------|-------------------|------9-|
|Guitar 2: Overdriven
e|-----------------|-----------------|---------------|------------|
B|o----------------|-----------------|---------------|-----------o|
G|-----------------|-7~~~~~~~~~~~~~~-|---------------|-4~~~~~~~~~-|
D|-4~~~~~~~~~~~~~~-|-7~~~~~~~~~~~~~~-|-7~~~~~~~~~~~~-|-4~~~~~~~~~-|
A|o4~~~~~~~~~~~~~~-|-5~~~~~~~~~~~~~~-|-7~~~~~~~~~~~~-|-2~~~~~~~~~o|
E|-2~~~~~~~~~~~~~~-|-----------------|-5~~~~~~~~~~~~-|------------|

Guitar 1
e|--------------------|-----------------|
B|o-------------------|----------------o|
G|-9-x-x-9--x-x-9--11-|-7-x-x-7-x-x-7-x-|
D|--------------------|-----------------|
A|o-------------------|----------------o|
E|--------------------|-----------------|
Guitar 2
e|--------------------|-----------------|
B|o-------------------|----------------o|
G|--------7~~~~~~~~~~-|--------4~~~~~~~-|
D|-4~~~~~-7~~~~~~~~~~-|-7~~~~~-4~~~~~~~-|
A|o4~~~~~-5~~~~~~~~~~-|-7~~~~~-2~~~~~~~o|
E|-2~~~~~-------------|-5~~~~~----------|

Guitar 1
e|-----------------|-----------------|-------------------|--------|
B|-----------------|-----------------|-------------------|--------|
G|-9-9-9-7-7-7-6-6-|-7-7-7-6-6-6-----|-7-7-7-6-6-6-------|--------|
D|-----------------|-------------7-7-|-------------7-7-9~|--------|
A|-----------------|-----------------|-------------------|-9--8---|
E|-----------------|-----------------|-------------------|------9-|
|Guitar 2: Overdriven
e|-----------------|-----------------|---------------|------------|
B|-----------------|-----------------|---------------|------------|
G|-----------------|-7~~~~~~~~~~~~~~-|---------------|-4~~~~~~~~~-|
D|-4~~~~~~~~~~~~~~-|-7~~~~~~~~~~~~~~-|-7~~~~~~~~~~~~-|-4~~~~~~~~~-|
A|-4~~~~~~~~~~~~~~-|-5~~~~~~~~~~~~~~-|-7~~~~~~~~~~~~-|-2~~~~~~~~~-|
E|-2~~~~~~~~~~~~~~-|-----------------|-5~~~~~~~~~~~~-|------------|

Verse:
Guitar 1: Im not too sure on this, they didn't really show what he was doing
It sounded like he was just strumming some chords...something likethis
E|---------------|
B|---------------|
G|-2-2-2-2-2-2-2-|
D|-x-x-x-x-x-x-x-|
A|-0-0-0-0-0-0-0-|
E|---------------| strum many times
Guitar 2: Overdriven
e|-----------------|-----------------|---------------|------------|
B|o----------------|-----------------|---------------|-----------o|
G|-----------------|-7~~~~~~~~~~~~~~-|---------------|-4~~~~~~~~~-|
D|-4~~~~~~~~~~~~~~-|-7~~~~~~~~~~~~~~-|-7~~~~~~~~~~~~-|-4~~~~~~~~~-|
A|o4~~~~~~~~~~~~~~-|-5~~~~~~~~~~~~~~-|-7~~~~~~~~~~~~-|-2~~~~~~~~~o|
E|-2~~~~~~~~~~~~~~-|-----------------|-5~~~~~~~~~~~~-|------------|x2

Chorus:
Guitar 2 only: Clean
e|--------------|----------------|-----------------|---------------|
B|o-------------|----------------|-----------------|---------------|o
G|----9-------9-|----9--------9--|----9----------9-|---9-------9---|
D|-7-----7--7---|-6------6---6---|-----------------|-6----6---6----|
A|o-------------|----------------|-9-----9---9-----|---------------|o
E|--------------|----------------|-----------------|---------------|

Interlude:
e|-----------------|-----------------|-------------------|--------|
B|o----------------|-----------------|-------------------|-------0|
G|-9-9-9-7-7-7-6-6-|-7-7-7-6-6-6-----|-7-7-7-6-6-6-------|--------|
D|-----------------|-------------7-7-|-------------7-7-9~|--------|
A|o----------------|-----------------|-------------------|-9--8--0|
E|-----------------|-----------------|-------------------|------9-|
|Guitar 2: Overdriven
e|-----------------|-----------------|---------------|------------|
B|o----------------|-----------------|---------------|-----------o|
G|-----------------|-7~~~~~~~~~~~~~~-|---------------|-4~~~~~~~~~-|
D|-4~~~~~~~~~~~~~~-|-7~~~~~~~~~~~~~~-|-7~~~~~~~~~~~~-|-4~~~~~~~~~-|
A|o4~~~~~~~~~~~~~~-|-5~~~~~~~~~~~~~~-|-7~~~~~~~~~~~~-|-2~~~~~~~~~o|
E|-2~~~~~~~~~~~~~~-|-----------------|-5~~~~~~~~~~~~-|------------|

Repeat Verse

Repeat chours

Bridge:
Guitar 1: LOTS of Delay and Reverb:
e|-12-12-12-12--7-7--9-9--7-9-7-9--|
B|---------------------------------|
G|---------------------------------|
D|---------------------------------|
A|---------------------------------|
E|---------------------------------|
Guitar 2
e|----------------|----------------|----------------|-----------------|
B|----------------|----------------|----------------|-----------------|
G|----------------|----------------|----------------|-----------------|
D|----------------|----------------|----------------|-7-7-7-7-7-7-7-7-|
A|1212121212121212|1212121212121212|1212121212121212|-x-x-x-x-x-x-x-x-|
E|1212121212121212|1010101010101010|9-9-9-9-9-9-9-9-|-7-7-7-7-7-7-7-7-|
plays as many times as needed [which is a lot]

Repeat Chorus

End on:
Guitar 2 only:
E|----|
B|----|
G|-2~-|
D|-2~-|
A|-0~-|
E|----|

End

| /  slide up
| \  slide down
| h  hammer-on
| p  pull-off
| ~  vibrato
| +  harmonic
| x  Mute note
============================================================================
Добавлено: 02.10.2013
Другие материалы по этой песне:
  • Аккорды и текст

Страница создана 02.10.2013
http://primanota.ru/angels-and-airwaves/adventure-live-chords.htm
Привет, Гость.
Предлагаем пройти революционный курс по гитаре.
Подарок от PrimaNota.Ru, забирай!