PrimaNota.ru - самый крупный в мире бесплатный архив песенных текстов, аккордов, табулатур и нот


Angelo Badalamenti - Twin Peaks Theme - таба, видео

Регистрация Запомнить меня
Войти через:  Facebook Google Twitter Vk Yandex Mail.ru

Angelo Badalamenti - Twin Peaks Theme - таба, видео

Печатать
Просмотров: 672
Авторы музыки: Angelo Badalamenti

This is the theme tune to an American 90s mystery drama which only lasted for 2 series, 
but was still awesome!

Chord sequence;
F, Dm, F, Dm
Bb, C, Bb, C
F, Dm, F, Dm
Bb, C, Bb, C


Tab structure;
   F             Dm
e|-------------------------------|
B|-------------------------------|
G|-----0-2-0---------------------|
D|---3-------3-------------------|
A|-3-----------3-5---------------|
E|-------------------------------|

G|-------------------------------|
D|-3-----------------------------|
A|-------------3-5-------------3-|
E|-------------------------------|
Добавлено: 23.10.2013
Другие материалы по этой песне:

Страница создана 12.03.2012
http://primanota.ru/angelo-badalamenti/twin-peaks-theme-chords.htm
Привет, Гость.
Предлагаем пройти революционный курс по гитаре.
Подарок от PrimaNota.Ru, забирай!