PrimaNota.ru - самый крупный в мире бесплатный архив песенных текстов, аккордов, табулатур и нот


Angelo Badalamenti - Cool Cat Walk - бас-таба, видео

Регистрация Запомнить меня
Войти через:  Facebook Google Twitter Vk Yandex Mail.ru

Angelo Badalamenti - Cool Cat Walk - бас-таба, видео

Печатать
Просмотров: 250
Авторы музыки: Angelo Badalamenti

Artist: Angelo Badalamenti
Song: Cool Cat Walk
Album: Wild At Heart Soundtrack

Note lengths are below the measure:

e - eigth note ( 1/2 beat )
s - sixteenth ( 1/4 beat )


 4/4
G|-3---2---1---0-1-2---1---0---1-2-|-3---2---1---0-1-2---1---0-------|
D|---------------------------------|-----------------------------4-3-|
A|---------------------------------|---------------------------------|
E|---------------------------------|---------------------------------|
   e   e   e   s s e   e   e   s s   e   e   e   s s e   e   e   s s


G|-3---2---1---0-------------------|---------------------------------||
D|-----------------4---4---3-------|---------------------------------||
A|-----------------------------4---|-1---3---4---1-2-3---------------||
E|---------------------------------|---------------------1---3---4-1-||
   e   e   e   e   e   e   e   e     e   e   e   s s e   e   e   s s

Enjoy :).
Добавлено: 21.06.2012
Другие материалы по этой песне:
  • Аккорды и текст

Страница создана 21.06.2012
http://primanota.ru/angelo-badalamenti/cool-cat-walk-chords.htm
Привет, Гость.
Предлагаем пройти революционный курс по гитаре.
Подарок от PrimaNota.Ru, забирай!