PrimaNota.ru - самый крупный в мире бесплатный архив песенных текстов, аккордов, табулатур и нот


Angelica - Teenage Girl Crush - таба, видео

Регистрация Запомнить меня
Войти через:  Facebook Google Twitter Vk Yandex Mail.ru

Angelica - Teenage Girl Crush - таба, видео

Печатать
Просмотров: 43
-------------------------------------------------------------------------------
TEENAGE GIRL CRUSH - Angelica
-------------------------------------------------------------------------------
Tabbed by: Ruairi
E-mail:

Tuning: Standard

Guitar 1: Repeat throughout whole song.

e|---------------------------------------------------------------------------|
B|---------------------------------------------------------------------------|
G|---------------------------------------------------------------------------|
D|------------------7-----9\-------7-----------------------------------------|
A|----------7---5-------7\---5-5---------------------------------------------|
E|------5--------------------------------------------------------------------|

Guitar 2: Comes in at the midpoint of the second chorus. Keep in line with guitar 1.

e|---------------------------------------------------------------------------|
B|---------------------------------------------------------------------------|
G|-----------7---7---99---7---7---6------------------------------------------|
D|---7---7---7---7---99---7---7---7------------------------------------------|
A|---7---7---5---5---77---5---5---5------------------------------------------|
E|---5---5-------------------------------------------------------------------|


That's the whole song.
************************************

| /   slide up
| \   slide down
| h   hammer-on
| p   pull-off
| ~   vibrato
| +   harmonic
| x   Mute note
| b   Bend
| pb  Pre-bend
| br  Bend release
| pbr Pre-bend release
| brb Bend release bend

************************************
Добавлено: 24.12.2015
Вам также может быть интересно:
Другие материалы по этой песне:
  • Аккорды и текст

Страница создана 24.12.2015
http://primanota.ru/angelica/teenage-girl-crush-chords.htm
Привет, Гость.
Предлагаем пройти революционный курс по гитаре.
Подарок от PrimaNota.Ru, забирай!