PrimaNota.ru - самый крупный в мире бесплатный архив песенных текстов, аккордов, табулатур и нот


Angeles Del Infierno - Sombras En La Oscuridad - таба, видео

Регистрация Запомнить меня
Войти через:  Facebook Google Twitter Vk Yandex Mail.ru

Angeles Del Infierno - Sombras En La Oscuridad - таба, видео

Печатать
Просмотров: 92
intro
------------------------------|
---10-8-----------------------|
--------9-7-5-----------------|
--------------7-5-------------|
------------------7-5---------|
----------------------8-5-5---|

 verse
---------------------------------------------------|
---------------------------------------------------|
---------------------------------------------------|
---------------------------------------------------|
--7-77-7-77-7-77-7-5---3-33-3-33-3-33--3-5---------|
--5-55-5-55-5-55-5-3---1-11-1-11-1-11--1-3---------|
  . .. . .. . ..       . .. . .. . ..

-------------------------------------------------------|
-------------------------------------------------------|
-------------------------------------------------------|
-------------------------------------------------------|
--5-55-5-55-5-55-5-7---7-77-7-77-7-77--7-5-------------|
--3-33-3-33-3-33-3-5---5-55-5-55-5-55--5-3-------------|
  . .. . .. . ..       . .. . .. . ..

	pre choro
-------------------------------------------|
-------------------------------------------|
---2----------55-----2-----------55--------|
---2----------55-----2-----------55--------|
---0-------00-33-----0--------00-33--------|
-------------------------------------------|

--------------------------------------------------------|
--------------------------------------------------------|
--------------------------------------------------------|
--------------------------------------------------------|
---5----------5-7----7-77-7-77-7-77--7-5----------------|
---3-------33-3-5----5-55-5-55-5-55--5-3----------------|


	choro
--------------------------------------|
--------------------------------------|
--------------------------------------|
---7---7\---3---3/--5---5/--7---------|
---7---7\---3---3/--5---5/--7---------|
---5---5\---1---1/--3---3/--5---------|

------------------------------------------------|
------------------------------------------------|
------------------------------------------------|
--5-7---7\---3---3/--5---5/---------------------|
--5-7---7\---3---3/--5---5/--7-77-77-7-77-7-5---|
--3-5---5\---1---1/--3---3/--5-55-55-5-55-5-3---|


al final del solo se toca esto
-------------------------------|
-------------------------------|
---4--5--7--9------------------|
---4--5--7--9------------------|
---2--3--5--7------------------|
-------------------------------|

   final
--------------------------------|
--------------------------------|
---4--5--7--9---2---------------|
---4--5--7--9---2---------------|
---2--3--5--7---0---------------|
--------------------------------|
Добавлено: 23.09.2013
Вам также может быть интересно:
Другие материалы по этой песне:

Страница создана 23.05.2012
http://primanota.ru/angeles-del-infierno/sombras-en-la-oscuridad-chords.htm
Привет, Гость.
Предлагаем пройти революционный курс по гитаре.
Подарок от PrimaNota.Ru, забирай!