PrimaNota.ru - самый крупный в мире бесплатный архив песенных текстов, аккордов, табулатур и нот


Angel Witch - Angelwitch (album) - таба, видео

Регистрация Запомнить меня
Войти через:  Facebook Google Twitter Vk Yandex Mail.ru

Angel Witch - Angelwitch (album) - таба, видео

Печатать
Просмотров: 138
Angelwitch - Angelwitch, 1980

Bronze Records
All songs written by Kevin Heybourne


************************************************************************************
Angelwitch

--------------------------------------------------------------------------------
17p15----------17p15----------15p13p12---15p13p12------13p12-----12--13p12------
-----17-14p17-------17-14p17-----------14---------14--------14-12---------14-12-
--------------------------------------------------------------------------------
--------------------------------------------------------------------------------
--------------------------------------------------------------------------------
Intro?

-----------------------------------------------------------------
-----------------------------------------------------------------
-----------------------------------------------------------------
--7----7--5----3-33----5---7-------------------------------------
--7----7--5----3-33----5---7-------------------------------------
--5----5--3----1-11----3---5-------------------------------------

 intro rhythm

------------------------------------------------------------
--------------------------------------10-10-----------------
----4-5------4-5-5/7-5-7-7/9-7-9--/12-----------------------
--7-----5/7-------------------------------------------------
------------------------------------------------------------
------------------------------------------------------------
intro solo
----------------------15-12h13p12----12---------------------
------12-13----12-13--------------15----13-12---------------
--14--------14--------------------------------14------------
------------------------------------------------------------
------------------------------------------------------------
------------------------------------------------------------


--------------------------------------|---------------------|-20-17----17-17--
--------------------------------------|---------------------|-------20--------
--------------------------------------|---------------------|-----------------
--7---7----5----5----3----3---5----7--|---------------------|-----------------
--7---7----5----5----3----3---5----7--|--------2-3-5--3---0-|-----------------
--5---5----3----3----1----1---3----5--|--0-3-5----------3---|-----------------
verse                                   fill A               fill B

---------------------------------------|----------|-----------------
---------------------------------------|----------|-----------------
---------------------------------------|----------|-----------------
------------------------10--10-9-------|----------|-----------------
--7-------9--10----------8---8-7-10--7-|----------|---?????????-----
--5-55555-7---8-8888888-----------8--5-|55555555--|-----------------
chorus                                               low background riff

----------------------------------7-------------------------
----------------------------------9-------------------------
-5--------9--------------------9--9-------------------------
-5--------9---9--9999--10--12--9----------------------------
-3--------7---7--7777---8--10--7----------------------------
------------------------------------------------------------
interlude


-----------------------------------------------------------
-----------------------------------------------------------
---10----12------------------------------------------------
---10----12----7---5----3---2x-----------------------------
----8----10----7---5----3---2x-----------------------------
---------------5---3----1---0x-----------------------------
interlude cont.


*******************************************************************************

Atlantis

-----------------------------------------------------------
-----------------------------------------------------------
-----------------------------------------------------------
-----------------------------------------------------------
--5-4------------------------------------------------------
--3-2-0----------------------------------------------------
 8X
-----------------------------------------------------------
-----------------------------------------------------------
-----------------------------------------------------------
----------3-2--------------5-/8\7--------------------------
----------1-0---5-2--------3-/6\5-8------------------------
--000000---0--0-3-0-000000--------6------------------------
2X

-----0-----1----3-------1----------------------------------
-----0-----1----3-------1----------------------------------
---------2-----4------2-----0----9---7---5---4-------------
--2------3-----5------3-----2----9---7---5---4-------------
--2------3-----5------3-----2----7---5---3---2-------------
--0----0-1---1-3--3-1-1---1-0------7---5---3---------------
verse part A
-----------------------------------------------------------
-----------------------------------------------------------
-----------------------------------------------------------
-5----7----5--4--3--5--2----------------0------------------
-5----7----5--4--3--5--2--------0-2-3-2-0------------------
-3----5----3--2--1--3--0--0-2-3----------------------------
rest

-----------------------------------------------------------
-----------------------------------------------------------
--7----5----4----5----7----5----4-----5?-------------------
--7----5----4----5----7----5----4-----5?-------------------
--5----3----2----3----5----3----2-----3?-------------------
-----------------------------------------------------------
pre-chorus riffs                          

-----------------------------------------------------------
-------------------------------10---11---12----------------
--11---9----8----9----11---9-------------------------------
-----------------------------------------------------------
-----------------------------------------------------------
-----------------------------------------------------------
pre-chorus lead                  


-----------------------------------------------------------
-----------------------------------------------------------
--11-11-11--12(hold)-----<-guitar 2--over riffs------------
-----------------------------------------------------------
--5-4---5-4-----1------------------------------------------
--3-2-0-3-2-0-3---3-0--------------------------------------
chorus 4X


2nd and 3rd time after chorus:

-----------|-12-12-12----



	
	
Добавлено: 03.06.2012
Другие материалы по этой песне:
  • Аккорды и текст

Страница создана 03.06.2012
http://primanota.ru/angel-witch/angelwitch-album-chords.htm
Привет, Гость.
Предлагаем пройти революционный курс по гитаре.
Подарок от PrimaNota.Ru, забирай!