PrimaNota.ru - самый крупный в мире бесплатный архив песенных текстов, аккордов, табулатур и нот


Angel Vivaldi - Sea Of Heartbreak - бас-таба, видео

Регистрация Запомнить меня
Войти через:  Facebook Google Twitter Vk Yandex Mail.ru

Angel Vivaldi - Sea Of Heartbreak - бас-таба, видео

Печатать
Просмотров: 240
-------------------------------------------------------------------------------
                             Sea of Heartbreak - Angel Vivaldi
-------------------------------------------------------------------------------
Alright this is my first tab so I hope it proves to be of use. There is no other tabs of my knowledge of this
song so I thought I would make one. The fills are a bit tricky to hear but I tried to make it as accurate as
possible so just listen carefully. I believe it is played on a 5-string bass but I tabbed for a 4-string.

Tabbed by: Landon Cowart
E-mail: Lancow@yahoo.com

Tuning:Standard

G|--------------|-------------|--------------|-----------------|
D|----------6\4-|-------------|----------6\4-|-----------------|
A|-4---4--------|--2---2------|-4----4-------|-2-----2-------2-|
E|----4---------|-----2-----4-|-----4--------|-----2---2-2-4---|

G|--------------|-------------|---------------|-----------------||
D|----------6\4-|-------------|------4/6--4---|-----------------||
A|-4---4--------|--2--2/4h6---|-4-------------|-0---------------||
E|----4---------|-----------4-|---------------|-----------------||

    :31

G|-------------|-------------|------------------|-----------------------|
D|--14---16----|--------16---|---14---16--13-14-|--------16-13-12-13--.-|
A|--12---12----|---14--------|---12---12--------|---14----------------.-|
E|-------------|---12---12---|------------------|---12---12-------------|

G|---------------------|-----------------------------|--------------------------------------|
D|--14--9-11-13--11-13-|--14--18-16-14-13-16-14-13-9-|-11--9-11-13-11-13-14--16-14-13-14-14-|
A|--12-------12--------|--12-------------------------|-12-------12-------12--12-------------|
E|---------------------|-----------------------------|--------------------------------------|

G|---------------------|-----------------------------|---------------14--14~------|
D|--14--9-11-13--11-13-|--14--18-16-14-13-16-14-13-9-|-11--9-11-13---14-----14~---|
A|--12-------12--------|--12-------------------------|-12-------12---12-------12~-|
E|---------------------|-----------------------------|----------------------------|

G|-------------|-------------|------------------|--------------------|
D|--14---16----|--------16---|---14---16--13-14-|--------16-13-12-13-|
A|--12---12----|---14--------|---12---12--------|---14---14----------|
E|-------------|---12---12---|------------------|---12---12----------|
       .       .         .
G|-----------------|-----------------------|-----------------|-------------------|
D|--14-14---16-16--|----------16-16--13-14-|--14---16--13-14-|-------16-13-12-13-|
A|--12-12---12-12--|--14-14------14--------|--12---12--------|--14---14----------|
E|-----------------|--12-12---12-12--------|-----------------|--12---12----------|

G|--------------------|-----------------------------|-------------------|----------------------|
D|--14--9-11-13-11-13-|--14--18-16-14-13-16-14-13-9-|-11--9-11-13-11-13-|--14-----14--16-14-14-|
A|--12-------12-------|--12-------------------------|-12-------12-------|--12--12-12--12-12-12-|
E|--------------------|-----------------------------|-------------------|------12--------------|

G|---------------------|-----------------------------|-------------------|--------1313131313131313-||
D|--14--9-11-13--11-13-|--14--18-16-14-13-16-14-13-9-|-11--9-11-13-11-13-|-141414------------------||
A|--12-------12--------|--12-------------------------|-12-------12-------|-------------------------||
E|---------------------|-----------------------------|-------------------|-------------------------||
                                                                           (14, not 1+4)
    2:36

G|-----------------------------|-----------------------|------------------------------------|
D|-----------------------------|-----------/7777777\2--|---------2h444442h4-------2h4444422-|
A|-----------------------------|-----5/777-------------|------------------------------------|
E|-/2-2222-0h2-2222-0h2-2222-4-|-5-5-------------------|-/2-2222--------------22222---------|

G|-------------------------------||--------------------------|--------------------------------|
D|-------------------7h99999--.--||--------------------------|------------------------7h9-7---|
A|---------------7h9----------.--||---------------------5/9-7|-5-55555-55555-5555-7h9-------9-|
E|-0-2-4-5-5h777-----------------||-2-22222-22222-22222------|--------------------------------|


G|-----------------|--------------------|---------------------------|
D|-----------------|------------------2-|---------------------------|
A|-----------------|---------------24---|---------------------5/9-7-|
E|-0-0/12\-0-0/12\-|-/12-9-7-5-245------|-2-22222-22222-22222-------|

G|------------------7h9-7---------------|-----------------|--------------------|
D|--------------7h9-------9-----7h9-7---|-----------------|--------------------|
A|-5-55555-5555-------------7h9-------9-|-----------------|--------------------|
E|--------------------------------------|-0-0/12\-0-0/12\-|-/16-14-12-9-754202-|

G|----------------------------|-------------------------7h9-7---|-----------------------------------|
D|----------------------------|---------------------7h9-------9-|---------------------------------2-|
A|--------------------/11-9-7-|-5-55555-55555-55555-------------|------------------------------24---|
E|-2-22222-22222-2222---------|---------------------------------|-0-0/12\-0-0/12\-12-9-7-5-245------|

G|---------------------------|------------------7h9-7---------------|------------------|-------||
D|---------------------------|--------------7h9-------9-----7h9-7---|------------------|-------||
A|--------------------/11-9-7|-5-55555-5555-------------7h9-------9-|------------754---|-------||
E|-2-22222-22222-2222--------|--------------------------------------|-0-0/12\-0-----754|0------||

   4:09
   BASS SOLO!
   *I am fully aware that most basses do not have a 25th fret so if you dont have a 5-string
    use the lower octave (A-23)

G|-------------------|-------------------16-\-|-------16h18------16h18/21-20-21/23-25-23|-21h23p21-20\------|
D|-/11--/13-/14-13h14|-/16---14h16p14-13------|-16h18-------16h18-----------------------|-------------------|
A|-------------------|------------------------|-----------------------------------------|-------------------|
E|-------------------|------------------------|-----------------------------------------|-------------------|

G|----------------------------|-------------------------9-8|4--------------------------|--------------------|
D|-16-18-16-14----------------|------2----------------6----|--4--6p4-----7-----------2-|--------------------|
A|-------------16-14\--9760h22|2/4--2-2-2/4-4/7-7-7h9------|---------7-6---7\------22-2|2/4-4/7-7/11-14-16--|
E|----------------------------|----2-----------------------|-------------------0h22----|--------------------|

G|14----------16----16h18-16----|16--------------------------------------||
D|---16/18-18----18----------18-|---18-16-14-161413----161413------------||
A|------------------------------|------------------14--------14----------||
E|------------------------------|------------------------------1614121197||

   4:41

G|-------------|-----------------|---------------|-----------------------|
D|-------------|-----------------|---------------|-----------------------|
A|-0---0-2-----|-4---------------|-0---0-2-------|4----------------------|
E|---4-----4-2-|-----12119711970-|---4-------5420|--0-2-4-7-9/12-12-11-7-|
   . . . . . . . . . . . .
G|-------------------------|---------------|------------------|----14--|--18---20--|
D|-------------------------|-6---6--6--6---|------------------|----14--|-----------|
A|-0-0-0-0-0-0-2-2-2-2-2-2-|---97-97-97-97-|-0-------2--/7-6-2|-0--12--|---0----0--|
E|-------------------------|---------------|-----5420---------|--------|-----------|

Hope You Enjoy!!

| /  slide up
| \  slide down
| h  hammer-on
| p  pull-off
| ~  vibrato
| +  harmonic
| x  Mute note
===============================================================================
Добавлено: 12.08.2015
Другие материалы по этой песне:
  • Аккорды и текст

Страница создана 12.08.2015
http://primanota.ru/angel-vivaldi/sea-of-heartbreak-chords.htm
Привет, Гость.
Предлагаем пройти революционный курс по гитаре.
Подарок от PrimaNota.Ru, забирай!