PrimaNota.ru - самый крупный в мире бесплатный архив песенных текстов, аккордов, табулатур и нот


angel pavement - Baby Youve Gotta Stay - бас-таба, видео

Регистрация Запомнить меня
Войти через:  Facebook Google Twitter Vk Yandex Mail.ru

angel pavement - Baby Youve Gotta Stay - бас-таба, видео

Печатать
Просмотров: 67
Tabbed by: 6METAL6BASSIST6
E-mail: petergriffinav@gmail.com

Tuning: EADG

0:21

G|--------|
D|12\-----|
A|--------|
E|--------|

G|----------------------------------------------------------------|
D|5---------------4---------------2---------------0---------------|
A|----------------------------------------------------------------|
E|----------------------------------------------------------------|

G|----------------------------------------------------------------|
D|----------------0---------------5---------------4---------------|
A|3---------------------------------------------------------------|
E|----------------------------------------------------------------|

G|------------------------7---9-7-----5---7-5-----4---5-4---2-----4-5---2-|
D|------------7-----7-----------------------------------------------------|
A|7-----7-----------------------------------------------------------------|
E|------------------------------------------------------------------------|

G|------------------------------------------------------------------------------------------------|
D|5---------5-4---------4-2---------2-0---------0-------------0---------0-5---------5-0---2-4-----|
A|------------------------------------------------3---------3-------------------------------------|
E|------------------------------------------------------------------------------------------------|

G|------------------------------------------------------------------------------------------------|
D|5---------5-4---------4-2---------2-0---------0-------------0---------0-5---------5-4---------4-|
A|------------------------------------------------3---------3-------------------------------------|
E|------------------------------------------------------------------------------------------------|

G|------------------------7-----7-----------------|
D|------------7-----7-----------------------------|
A|7-----7-----------------------------------------|
E|------------------------------------------------|

G|----------------------------------------------------------------|
D|----------------------------------------------------------------|
A|----------------------------------------------------------------|
E|----------------------------------------------------------------|

G|----------------------------------------------------------------|
D|--------------------------------------------------------12\-----|
A|----------------------------------------------------------------|
E|----------------------------------------------------------------|

1:02

G|----------------------------------------------------------------|
D|5---------------4---------------2---------------0---------------|
A|----------------------------------------------------------------|
E|----------------------------------------------------------------|

G|----------------------------------------------------------------|
D|----------------0---------------5---------------4---------------|
A|3---------------------------------------------------------------|
E|----------------------------------------------------------------|

1:10

G|------------------------7---9-7-----5---7-5-----4---5-4---2-2---4-5---2-|
D|------------7-----7-----------------------------------------------------|
A|7-----7-----------------------------------------------------------------|
E|------------------------------------------------------------------------|

G|------------------------------------------------------------------------------------------------|
D|5---------5-4---------4-2---------2-0---------0-------------0---------0-5---------5-0---2-4-----|
A|------------------------------------------------3---------3-------------------------------------|
E|------------------------------------------------------------------------------------------------|

G|------------------------------------------------------------------------------------------------|
D|5---------5-4---------4-2-----------0---------0-------------0-----------5---------5-4---------4-|
A|------------------------------------------------3-----------------------------------------------|
E|------------------------------------------------------------------------------------------------|

G|------------------------7---9-7-----5---7-5-----4---5-4-----2---4-2-----|
D|------------7-----7-----------------------------------------------------|
A|7-----7-----------------------------------------------------------------|
E|------------------------------------------------------------------------|

1:36

G|------------------------------------------------------------------------------------------------|
D|5---------5-4---------4-2---------2-0---------0-------------0---------0-5---------5-0---2-4-----|
A|------------------------------------------------3---------3-------------------------------------|
E|------------------------------------------------------------------------------------------------|

G|------------------------------------------------------------------------------------------------|
D|5---------5-4---------4-2-----------0---------0-------------0---------0-5---------5-4-----------|
A|------------------------------------------------3-----------------------------------------------|
E|------------------------------------------------------------------------------------------------|

G|------------------------7-----------7---9-7-----------------------------7-----7-----7---9-7-----|
D|------------7-----7-----------------------------------------7-----7-----------------------------|
A|7-----7-----------------------------------------7-----7-----------------------------------------|
E|------------------------------------------------------------------------------------------------|

G|------------------------7-----------7---9-7-----------------------------7-----------7---9-7-----|
D|------------7-----7-----------------------------------------7-----7-----------------------------|
A|7-----7-----------------------------------------7-----7-----------------------------------------|
E|------------------------------------------------------------------------------------------------|

G|------------------------7-----7-----7---9-7-----------------------------7-----------7---9-7-----|
D|------------7-----7-----------------------------------------7-----7-----------------------------|   fades
A|7-----7-----------------------------------------7-----7-----------------------------------------| out here.
E|------------------------------------------------------------------------------------------------|
Добавлено: 07.06.2016
Другие материалы по этой песне:
  • Аккорды и текст

Страница создана 07.06.2016
http://primanota.ru/angel-pavement/baby-youve-gotta-stay-chords.htm
Привет, Гость.
Предлагаем пройти революционный курс по гитаре.
Подарок от PrimaNota.Ru, забирай!