PrimaNota.ru - самый крупный в мире бесплатный архив песенных текстов, аккордов, табулатур и нот


Angel Dust - Stepping Stone - таба, видео

Регистрация Запомнить меня
Войти через:  Facebook Google Twitter Vk Yandex Mail.ru

Angel Dust - Stepping Stone - таба, видео

Печатать
Просмотров: 42
-------------------------------------------------------------------------------
                             Stepping Stone - Angel Du$t
-------------------------------------------------------------------------------
Tabbed by:Jason
E-mail:

Tuning:Drop D

e|----------------------------------------------------------------------------------------|
B|----------------------------------------------------------------------------------------|
G|----------------------------------------------------------------------------------------|
D|12-12-12-12-15-16-15---12-12-12-15-16-15-13-12-12-12-12-15-16-15---12-12-12-15-16-15-13-|
A|12-12-12-12-15-16-15---12-12-12-15-16-15-13-12-12-12-12-15-16-15---12-12-12-15-16-15-13-|
D|12-12-12-12-15-16-15---12-12-12-15-16-15-13-12-12-12-12-15-16-15---12-12-12-15-16-15-13-|

e|----------------------------------------------------------------------------------------|
B|----------------------------------------------------------------------------------------|
G|----------------------------------------------------------------------------------------|
D|12-12-12-12-12-12-12-12-13--13--13-13-13-13-13-12-12-12-12-12-12-12-12------------------|
A|12-12-12-12-12-12-12-12-13--13--13-13-13-13-13-12-12-12-12-12-12-12-12------------------|
D|12-12-12-12-12-12-12-12-13--13--13-13-13-13-13-12-12-12-12-12-12-12-12------------------|

e|----------------------------------------------------------------------------------------|
B|----------------------------------------------------------------------------------------|
G|----------------------------------------------------------------------------------------|
D|12-12-12-12-15-16-15---12-12-12-15-16-15-13-12-12-12-12-15-16-15---12-12-12-15-16-15-13-|
A|12-12-12-12-15-16-15---12-12-12-15-16-15-13-12-12-12-12-15-16-15---12-12-12-15-16-15-13-|
D|12-12-12-12-15-16-15---12-12-12-15-16-15-13-12-12-12-12-15-16-15---12-12-12-15-16-15-13-|

e|----------------------------------------------------------------------------------------|
B|----------------------------------------------------------------------------------------|
G|----------------------------------------------------------------------------------------|
D|12-12-12-12-12-12-12-12-13--13--13-13-13-13-13-12-12-12-12-12-12-12-12------------------|
A|12-12-12-12-12-12-12-12-13--13--13-13-13-13-13-12-12-12-12-12-12-12-12------------------|
D|12-12-12-12-12-12-12-12-13--13--13-13-13-13-13-12-12-12-12-12-12-12-12------------------|

e|------------------------------------------------------------------------------------------|
B|------------------------------------------------------------------------------------------|
G|------------------------------------------------------------------------------------------|
D|12--12-12--12-12--12--12--12---12--12-12--12-12--12--12--12---13--13-13--13-13--13--13--13|
A|12--12-12--12-12--12--12--12---12--12-12--12-12--12--12--12---13--13-13--13-13--13--13--13|
D|12--12-12--12-12--12--12--12---12--12-12--12-12--12--12--12---13--13-13--13-13--13--13--13|

e|------------------------------------------------------------------------------------------------------|
B|------------------------------------------------------------------------------------------------------|
G|------------------------------------------------------------------------------------------------------|
D|12-12-12-15-16-15-13----12-12-15-16-15-13---12-12-12-15-16-15-13----12-12-12-12/13-12/13-13-----------|
A|12-12-12-15-16-15-13----12-12-15-16-15-13---12-12-12-15-16-15-13----12-12-12-12/13-12/13-13-----------|
D|12-12-12-15-16-15-13----12-12-15-16-15-13---12-12-12-15-16-15-13----12-12-12-12/13-12/13-13-----------|

e|------------------------------------------------------------------------------------------------------|
B|------------------------------------------------------------------------------------------------------|
G|------------------------------------------------------------------------------------------------------|
D|12-12-12-15-16-15-13----12-12-15-16-15-13---12-12-12-15-16-15-13----12-12-12-12/13-12/13-13-----------|
A|12-12-12-15-16-15-13----12-12-15-16-15-13---12-12-12-15-16-15-13----12-12-12-12/13-12/13-13-----------|
D|12-12-12-15-16-15-13----12-12-15-16-15-13---12-12-12-15-16-15-13----12-12-12-12/13-12/13-13-----------|

e|---------------------------------------------------------------------------|
B|---------------------------------------------------------------------------|
G|---------------------------------------------------------------------------|
D|12-12-12-12-15-16-15---12-12-12-15-16-15-13-12-----------------------------|
A|12-12-12-12-15-16-15---12-12-12-15-16-15-13-12-----------------------------|
D|12-12-12-12-15-16-15---12-12-12-15-16-15-13-12-----------------------------|

************************************

| /   slide up
| \   slide down
| h   hammer-on
| p   pull-off
| ~   vibrato
| +   harmonic
| x   Mute note
| b   Bend
| pb  Pre-bend
| br  Bend release
| pbr Pre-bend release
| brb Bend release bend

************************************
Добавлено: 02.01.2016
Другие материалы по этой песне:
  • Аккорды и текст

Страница создана 02.01.2016
http://primanota.ru/angel-dust/stepping-stone-chords.htm
Привет, Гость.
Предлагаем пройти революционный курс по гитаре.
Подарок от PrimaNota.Ru, забирай!