PrimaNota.ru - самый крупный в мире бесплатный архив песенных текстов, аккордов, табулатур и нот


Angel Dust - Smash You Up - таба, видео

Регистрация Запомнить меня
Войти через:  Facebook Google Twitter Vk Yandex Mail.ru

Angel Dust - Smash You Up - таба, видео

Печатать
Просмотров: 125
Уроки эстрадного вокала в Санкт-Петербурге
-------------------------------------------------------------------------------
                             Smash You Up - Angel Du$t
-------------------------------------------------------------------------------
Tabbed by:Jason
E-mail:

Tuning: Drop D

e|-----------------------------------------------------------------------------------------------------|
B|-----------------------------------------------------------------------------------------------------|
G|-----------------------------------------------------------------------------------------------------|
D|9--12--6---9-7-6-9--12--6---------9--12--6---9-7-6-9--12--6--------9xxxxxxxx12-11-10-9---------------|
A|9--12--6---9-7-6-9--12--6---------9--12--6---9-7-6-9--12--6--------9xxxxxxxx12-11-10-9---------------|
D|9--12--6---9-7-6-9--12--6---------9--12--6---9-7-6-9--12--6--------9xxxxxxxx12-11-10-9---------------|

e|-----------------------------------------------------------------------------------------------------|
B|-----------------------------------------------------------------------------------------------------|
G|-----------------------------------------------------------------------------------------------------|
D|9--12--6---9-7-6-9--12--6---------9--12--6---9-7-6-9--12--6--------7---8---9---10---12---------------|
A|9--12--6---9-7-6-9--12--6---------9--12--6---9-7-6-9--12--6--------7---8---9---10---12---------------|
D|9--12--6---9-7-6-9--12--6---------9--12--6---9-7-6-9--12--6--------7---8---9---10---12---------------|

e|-----------------------------------------------------------------------------------------------------|
B|-----------------------------------------------------------------------------------------------------|
G|-----------------------------------------------------------------------------------------------------|
D|9--12--6---9-7-6-9--12--6---------9--12--6---9-7-6-9--12--6--------9xxxxxxxx12-11-10-9---------------|
A|9--12--6---9-7-6-9--12--6---------9--12--6---9-7-6-9--12--6--------9xxxxxxxx12-11-10-9---------------|
D|9--12--6---9-7-6-9--12--6---------9--12--6---9-7-6-9--12--6--------9xxxxxxxx12-11-10-9---------------|

e|-------------------------------------------------------------------|
B|-------------------------------------------------------------------|
G|-------------------------------------------------------------------|
D|9-9-9-7-6-6-6-7-9-9-9-9-9-9-9-9-9-9-9-7-6-6-6-7-9-9-9-9-9-12-11-10-|
A|9-9-9-7-6-6-6-7-9-9-9-9-9-9-9-9-9-9-9-7-6-6-6-7-9-9-9-9-9-12-11-10-|
D|9-9-9-7-6-6-6-7-9-9-9-9-9-9-9-9-9-9-9-7-6-6-6-7-9-9-9-9-9-12-11-10-|

e|--------------------------------------------------------------------|
B|--------------------------------------------------------------------|
G|--------------------------------------------------------------------|
D|9-9-9-7-6-6-6-7-9-9-9-9-9-9-9-9-9-9-9-7-6-6-6-7-9-9-9-9-9-12-11-10-9|
A|9-9-9-7-6-6-6-7-9-9-9-9-9-9-9-9-9-9-9-7-6-6-6-7-9-9-9-9-9-12-11-10-9|
D|9-9-9-7-6-6-6-7-9-9-9-9-9-9-9-9-9-9-9-7-6-6-6-7-9-9-9-9-9-12-11-10-9|
  x x x x x x x x x x x x x x x x x x x x x x x x x x x x x 
************************************

| /   slide up
| \   slide down
| h   hammer-on
| p   pull-off
| ~   vibrato
| +   harmonic
| x   Mute note
| b   Bend
| pb  Pre-bend
| br  Bend release
| pbr Pre-bend release
| brb Bend release bend

************************************
Добавлено: 23.06.2015
Другие материалы по этой песне:
  • Аккорды и текст

Страница создана 23.06.2015
http://primanota.ru/angel-dust/smash-you-up-chords.htm
Привет, Гость.
Предлагаем пройти революционный курс по гитаре.
Подарок от PrimaNota.Ru, забирай!