PrimaNota.ru - самый крупный в мире бесплатный архив песенных текстов, аккордов, табулатур и нот


Angel Dust - Set Me Up - таба, видео

Регистрация Запомнить меня
Войти через:  Facebook Google Twitter Vk Yandex Mail.ru

Angel Dust - Set Me Up - таба, видео

Печатать
Просмотров: 156
-------------------------------------------------------------------------------
                             Set me up - Angel Du$t
-------------------------------------------------------------------------------
Tabbed by:
E-mail:

Tuning:Drop D

e|--------------------------------------------------------------------------------|
B|--------------------------------------------------------------------------------|
G|--------------------------------------------------------------------------------|
D|7---3---2--------------------------------------------------------------7--------|
A|7---3---2--------------------------------------------------------------7--------|
D|7---3---2--------------------------------------------------------------7--------|

e|--------------------------------------------------------------------------------|
B|--------------------------------------------------------------------------------|
G|--------------------------------------------------------------------------------|
D|7-8-7-8-10--10-5--8-7-8-7-8-10--10-5--8-7-8-7-8-10--10-5--8-7-8-7-8-10--10-10-8-|
A|7-8-7-8-10--10-5--8-7-8-7-8-10--10-5--8-7-8-7-8-10--10-5--8-7-8-7-8-10--10-10-8-|
D|7-8-7-8-10--10-5--8-7-8-7-8-10--10-5--8-7-8-7-8-10--10-5--8-7-8-7-8-10--10-10-8-|

e|--------------------------------------------------------------------|
B|--------------------------------------------------------------------|
G|--------------------------------------------------------------------|
D|10-7-7---7---10-7-7---7---10-7-7---10-7-7---7---7-7-5/7---8---8-8-8-|
A|10-7-7---7---10-7-7---7---10-7-7---10-7-7---7---7-7-5/7---8---8-8-8-|
D|10-7-7---7---10-7-7---7---10-7-7---10-7-7---7---7-7-5/7---8---8-8-8-|

e|--------------------------------------------------------------------|
B|--------------------------------------------------------------------|
G|--------------------------------------------------------------------|
D|10-7-7---7---10-7-7---7---10-7-7---10-7-7---7---7-7-5/7---8---8-8-8-|
A|10-7-7---7---10-7-7---7---10-7-7---10-7-7---7---7-7-5/7---8---8-8-8-|
D|10-7-7---7---10-7-7---7---10-7-7---10-7-7---7---7-7-5/7---8---8-8-8-|

e|--------------------------------------------------------------------|
B|--------------------------------------------------------------------|
G|--------------------------------------------------------------------|
D|10-7-7---7---10-7-7---7---10-7-7---10-7-7---7---7-7-5/7---8---8-8-8-|
A|10-7-7---7---10-7-7---7---10-7-7---10-7-7---7---7-7-5/7---8---8-8-8-|
D|10-7-7---7---10-7-7---7---10-7-7---10-7-7---7---7-7-5/7---8---8-8-8-|

e|----------------------------------------------------------------------|
B|----------------------------------------------------------------------|
G|----------------------------------------------------------------------|
D|10-7-7---7---10-7-7---7------8-8-8-10-7-7---7---10-7-7---7------5-5-5-|
A|10-7-7---7---10-7-7---7------8-8-8-10-7-7---7---10-7-7---7------5-5-5-|
D|10-7-7---7---10-7-7---7------8-8-8-10-7-7---7---10-7-7---7------5-5-5-|

e|---------------------------------------------------------------------------|
B|---------------------------------------------------------------------------|
G|---------------------------------------------------------------------------|
D|10-7-7---7---10-7-7---7------8-8-8-10-7-7---7---10-7-7---7------5-5-5------|
A|10-7-7---7---10-7-7---7------8-8-8-10-7-7---7---10-7-7---7------5-5-5------|
D|10-7-7---7---10-7-7---7------8-8-8-10-7-7---7---10-7-7---7------5-5-5------|

e|-------------------------------------------------------------------------------|
B|-------------------------------------------------------------------------------|
G|-------------------------------------------------------------------------------|
D|7-8-7-8-10--10-5--8-7-8-7-8-10--10-5--8-7-8-7-8-10--10-5--8-7-8-7-8-10-10------|
A|7-8-7-8-10--10-5--8-7-8-7-8-10--10-5--8-7-8-7-8-10--10-5--8-7-8-7-8-10-10------|
D|7-8-7-8-10--10-5--8-7-8-7-8-10--10-5--8-7-8-7-8-10--10-5--8-7-8-7-8-10-10------|

e|------------------------------------------------------------------------------------------------|
B|------------------------------------------------------------------------------------------------|
G|------------------------------------------------------------------------------------------------|
D|7-8-7-8-10--10-5--8-7-8-7-8-10--10-5--8-7-8-7-8-10--10-5--8-7-8-7-8-10-10---10-8-7--------------|
A|7-8-7-8-10--10-5--8-7-8-7-8-10--10-5--8-7-8-7-8-10--10-5--8-7-8-7-8-10-10---10-8-7--------------|
D|7-8-7-8-10--10-5--8-7-8-7-8-10--10-5--8-7-8-7-8-10--10-5--8-7-8-7-8-10-10---10-8-7--------------|

e|--------------------------------------------------------------------|
B|--------------------------------------------------------------------|
G|--------------------------------------------------------------------|
D|10-7-7---7---10-7-7---7---10-7-7---10-7-7---7---7-7-5/7---8---8-8-8-|
A|10-7-7---7---10-7-7---7---10-7-7---10-7-7---7---7-7-5/7---8---8-8-8-|
D|10-7-7---7---10-7-7---7---10-7-7---10-7-7---7---7-7-5/7---8---8-8-8-|

e|--------------------------------------------------------------------|
B|--------------------------------------------------------------------|
G|--------------------------------------------------------------------|
D|10-7-7---7---10-7-7---7---10-7-7---10-7-7---7---7-7-5/7---8---8-8-8-|
A|10-7-7---7---10-7-7---7---10-7-7---10-7-7---7---7-7-5/7---8---8-8-8-|
D|10-7-7---7---10-7-7---7---10-7-7---10-7-7---7---7-7-5/7---8---8-8-8-|

e|----------------------------------------------------------------------|
B|----------------------------------------------------------------------|
G|----------------------------------------------------------------------|
D|10-7-7---7---10-7-7---7------8-8-8-10-7-7---7---10-7-7---7------5-5-5-|
A|10-7-7---7---10-7-7---7------8-8-8-10-7-7---7---10-7-7---7------5-5-5-|
D|10-7-7---7---10-7-7---7------8-8-8-10-7-7---7---10-7-7---7------5-5-5-|

e|---------------------------------------------------------------------------|
B|---------------------------------------------------------------------------|
G|---------------------------------------------------------------------------|
D|10-7-7---7---10-7-7---7------8-8-8-10-7-7---7---10-7-7---7------5-5-5-7----|
A|10-7-7---7---10-7-7---7------8-8-8-10-7-7---7---10-7-7---7------5-5-5-7----|
D|10-7-7---7---10-7-7---7------8-8-8-10-7-7---7---10-7-7---7------5-5-5-7----|


************************************

| /   slide up
| \   slide down
| h   hammer-on
| p   pull-off
| ~   vibrato
| +   harmonic
| x   Mute note
| b   Bend
| pb  Pre-bend
| br  Bend release
| pbr Pre-bend release
| brb Bend release bend

************************************
Добавлено: 18.07.2015
Другие материалы по этой песне:
  • Аккорды и текст

Страница создана 18.07.2015
http://primanota.ru/angel-dust/set-me-up-chords.htm
Привет, Гость.
Предлагаем пройти революционный курс по гитаре.
Подарок от PrimaNota.Ru, забирай!