PrimaNota.ru - самый крупный в мире бесплатный архив песенных текстов, аккордов, табулатур и нот


Angel Dust - Beneath The Silence - текст песни, таба, видео

Регистрация Запомнить меня
Войти через:  Facebook Google Twitter Vk Yandex Mail.ru

Angel Dust - Beneath The Silence - текст песни, таба, видео

Печатать
Просмотров: 330
Новый альбом группы 'Черный Кузнец' по культовому сериалу 'Сверхъестественное'!
As recorded by Angel Dust
(From the 2000 Album ENLIGHTEN THE DARKNESS)

Transcribed by Israel Velasco
        

Words and Music by Angel Dust

Gtr I (Eb Ab Db Gb Bb Eb) - 'Guitar'
Gtr II (Eb Ab Db Gb Bb Eb) - 'Solo'

 Intro
  Q=110
  Am        Am7       G            F              Am        Am7
 4/4
  Gtr I
   E. S E E E E E E    E E E Q  Q  E   W           E. S E E E E E E
|-------------------|--------------0-|----------|--------------------|
|-----------8-------|------3-------1-|----------|-----------8--------|
|-^5--5S4-5---5---4-|-^4h5---5--4----|-2--------|-^5--5S4-5---5---4--|
|-^7------------7---|-^5-------------|-3--------|-^7------------7----|
|-^0----------------|----------------|----------|-^0-----------------|
|-------------------|----------------|----------|--------------------|


  G                Dm7
   E E E Q  Q  E   E E E E E E E E
|----------------|-----------------|
|------3-------5-|-6-----8---6-----|
|-^4h5---5--4----|---5-----5---5---|
|-^5-------------|-----7---------7-|
|----------------|-5---------------|
|----------------|-----------------|


  G/E                     Am        Am7
 9/8                     4/4
               ~~~~~~~
  E E E  E  E  E  +Q.      E. S E E E E E E
|-----------------------|--------------------|
|-8-----10-10S12-(12)---|-----------8--------|
|---7-------------------|-^5--5S4-5---5---4--|
|-----9-----------------|-^7------------7----|
|-----------------------|-^0-----------------|
|-0---------------------|--------------------|


  G            F              Am        Am7       G            C/A
   E E E Q  Q  E   W           E. S E E E E E E    E E E Q  Q  S S
|--------------0-|----------|-------------------|-------------------|
|------3-------1-|----------|-----------8-------|------3---------1--|
|-^4h5---5--4----|-2--------|-^5--5S4-5---5---4-|-^4h5---5--4--2----|
|-^5-------------|-3--------|-^7------------7---|-^5----------------|
|----------------|----------|-^0----------------|-------------------|
|----------------|----------|-------------------|-------------------|


             Verse
              N.C.        Am          C/A   Am                Gadd9
  W           S.E S. E E. E E E   E E E E E E E E   E E E E E E E E
|-0--------||-------------------|---0-----0-------|---0-----0-------|
|----------||-----------------1-|-------1-------1-|-------1-------0-|
|----------||---------------2---|-2---2-------2---|-2---2-------2---|
|----------||-------------------|-----------------|-----------------|
|----------||-------------0-----|-----------0-----|-----------------|
|----------||-7S8S7--5S3--------|-----------------|-----------3-----|


  Asus2     Gadd9   Asus2     Asus2/F Asus2     Asus2/F Asus2     Bm/E
  E E E E E E E E   E E E E E E E E   E E E E E E E E   E E E E E E E E
|---0-----0-------|---0-----0-------|---0-----0-------|---0-----0-------|
|-------0-------0-|-------0-------0-|-------0-------0-|-------0-------3-|
|-2---2-------2---|-2---2-------2---|-2---2-------2---|-2---2-------4---|
|-----------------|-----------------|-----------------|-----------------|
|-----------------|-----------------|-----------------|-----------------|
|-----------3-----|-----------1-----|-----------1-----|-----------0-----|


                   Am                                        Gadd9
  E E E E E Q.     +Q.   E E E E E   E E E E E E E E   E E E E E E E E
|---------0------|---------------0-|-----0---------0-|-----0---------0-|
|---0---3--------|-----------1-----|---1-------1-----|---1-------0-----|
|-4---4----------|---------2---2---|-2-------2---2---|-2-------2---2---|
|----------------|-----------------|-----------------|-----------------|
|----------------|-------0---------|-------0---------|-----------------|
|-----------0----|-(0)-------------|-----------------|-------3---------|


                    Asus2 Asus2/F     Asus2 Asus2/F     Asus2 Bm/E
  E E E E E E E E   E E E E E E E E   E E E E E E E E   E E E E E E E E
|-----0---------0-|-----0---------0-|-----0---------0-|-----0---------0-|
|---0-------0-----|---0-------0-----|---0-------0-----|---0-------3-----|
|-2-------2---2---|-2-------2---2---|-2-------2---2---|-2-------4---4---|
|-----------------|-----------------|-----------------|-----------------|
|-----------------|-----------------|-----------------|-----------------|
|-------3---------|-------1---------|-------1---------|-------0---------|


                  Chorus
  Bm/E                  C                 G           G      Am/F
 9/8              4/4
  E E E H.         Q  E E E E E E   E E E E E E E E    E E E Q  E E E
|-----0---------||--------------0-|-----------------|------0--------0--|
|---3-----------||----0-1---1-----|-1---1-3-------3-|--------1---------|
|-4-------------||--------0---0---|---0-----4---4---|-^4h5------2------|
|---------------||----------------|-------5---5-----|-^5-----3----3----|
|---------------||-0--2-3---------|-----------------|------------------|
|-------0-------||----------------|-----------------|------------------|


  Am/F    Am            C               Em7          Am
  E E E E E E E E   E E Q  E E Q    E E Q  E E E E   Q  +H.
|-------------0---|------------0--|----------------|-0--(0)----|
|-1-------1-----1-|---0-1----1-1--|-1---3----------|-1--(1)----|
|---2---2---2-----|-2------0------|---0----4-4h5-4-|-2---------|
|-----3-----------|---------------|-----5----5-----|-----------|
|-----------------|-----3---------|----------------|-----------|
|-----------------|---------------|----------------|-----------|


   Out-Chorus
    Am      Am7         G                F      Am/F      Am
                                                         9/8
     E. S E E E E E E    E E E Q  Q  E   Q  E E E E E E   E E E E E E Q.
||--------------------|--------------0-|--------0-------|-------0-----------|
||o-----------8-------|------3---------|-1--------1-----|---1-----1---0-----|
||--^5--5S4-5---5---4-|-^4h5---5--4----|-2--2-------2---|-2---2-----2-------|
||--^7------------7---|-^5-------------|-3----3-------3-|-------------------|
||o-^0----------------|----------------|----------------|-------------------|
||--------------------|----------------|----------------|-------------------|


  1.
  Am      Am7         G
 4/4
   E. S E E E E E E    E E E Q  Q  E
|-------------------|--------------0-|
|-----------8-------|------3---------|
|-^5--5S4-5---5---4-|-^4h5---5--4----|
|-^7------------7---|-^5-------------|
|-^0----------------|----------------|
|-------------------|----------------|


  Dm7               G/E
                   9/8
  E E E E E E E E   E E E  E  E  E  +Q.
|-----------------|-------------------------||
|-6-----8---6-----|-8-----10-10S12-(12)----o||
|---5-----5---5---|---7---------------------||
|-----7---------7-|-----9-------------------||
|-5---------------|------------------------o||
|-----------------|-0-----------------------||


                                                    Guitar Solo
  2.
  Am      Am7         G            Am                Em
 4/4
   E. S E E E E E E    E E E Q  Q  S S   W           E E E E   E  E E E
|-------------------|------------------|-0--------||-----------0------0---|
|-----------8-------|------3---------1-|----------||-----0----------0-----|
|-^5--5S4-5---5---4-|-^4h5---5--4--2---|----------||---0---0------0-------|
|-^7------------7---|-^5---------------|----------||----------------------|
|-^0----------------|------------------|----------||----------------------|
|-------------------|------------------|----------||-0--------------------|
|
| Gtr II
|                                                              ~~
|  W                   W                 W           Q   E S S Q.     S S
|-------------------|------------------|----------||----------------------|
|-------------------|------------------|----------||------------------8-7-|
|--5----------------|------------------|----------||-------9-7-9----------|
|-------------------|------------------|----------||----------------------|
|-------------------|------------------|----------||----------------------|
|-------------------|------------------|----------||----------------------|


  Em                Bm/E
  E E E E E E E E   E         E    E E E E E E
|---------0-----0-|--------------------2-----2----|
|-----0-------0---|----------------3-------3------|
|---0---0---0-----|-----------4------4---4--------|
|-----------------|-------------------------------|
|-----------------|-2-----------------------------|
|-0---------------|-------------------------------|
|
| ~
|                   |-3-|
| W                 X X X S S   S. E Q   E E T S.
|-----------------|-------7h9p==7--5-7---5--------|
|-8---------------|-----x------------------8-7S8--|
|-----------------|---x---------------------------|
|-----------------|-x-----------------------------|
|-----------------|-------------------------------|
|-----------------|-------------------------------|


  Bm/E                C
   E  E E E E E E E    E  E E E   E  E E E
|-----------2-----2-|-------------0------0----|
|-------3-------3---|-------1----------0------|
|-----4---4---4-----|-----0---0------0--------|
|-------------------|-------------------------|
|--2----------------|--3----------------------|
|-------------------|-------------------------|
|
|                                 ~~
| +E  E E E E E Q     +Q    E S S Q.     S S
|-------------------|-------------------------|
|-(8)-7p5---5-8-5---|-(5)----------------8-7--|
|---------7---------|---------9-7-9-----------|
|-------------------|-------------------------|
|-------------------|-------------------------|
|-------------------|-------------------------|


  D                         G5
  E  E E E E E E   E         E  E E E  E      E E E
|----------2-------2------|------------3----------3-|
|------3-------3----------|-------3-------------3---|
|----2---2---2------------|-----0---0---------0-----|
|-0-----------------------|-------------------------|
|-------------------------|-------------------------|
|-------------------------|--3----------------------|
|
| ~~                    ~~~~~~~~~~~~~~~~~~
| H.           S S T  S T   +H        +S  Q..
|------------------7h10-7-|-(7)-------(7)-----------|
|-8--------------7--------|-------------------------|
|-------------------------|-------------------------|
|-------------------------|-------------------------|
|-------------------------|-------------------------|
|-------------------------|-------------------------|


                                      Em
     W                                  E  E E E   E  E E E
|-----------------------------------|--------------0------0-----|
|-----------------------------------|--------0----------0-------|
|-----------------------------------|------0---0------0---------|
|-----------------------------------|---------------------------|
|-----------------------------------|---------------------------|
|----3------------------------------|---0-----------------------|
|
|                                                  ~~
| a  E      E  E  E  E  E  E  E         Q.     S S Q.     S S
|---15b15.5---10--------------------|---------------------------|
|-x--------------13-12-10-12-11pb13r|=(11)----------------8-7---|
|-----------------------------------|----------9-7-9------------|
|-----------------------------------|---------------------------|
|-----------------------------------|---------------------------|
|-----------------------------------|---------------------------|


  Em                 Bm/E                   Bm/E
  E  E E E E E E E   E E   E E E E  E E      E      E     E   E     E E E  E
|----------0-----0-|-----------2------2---|-------------------------2------2---|
|------0-------0---|-------3--------3-----|---------------3-------------3------|
|----0---0---0-----|---4-----4---4--------|---------4---------4-------4--------|
|------------------|----------------------|------------------------------------|
|------------------|-2--------------------|--2---------------------------------|
|-0----------------|----------------------|------------------------------------|
|
| ~~
|                                                 |--3--|
| H.           Q     E S S E E E E  E S S   +T  T E   E E   E   Q..       +E
|------------------|-7h8---7-5-7-8-10---8-|-(8)-7h8---7-5---3---5---------(5)--|
|-8----------------|----------------------|------------------------------------|
|------------------|----------------------|------------------------------------|
|------------------|----------------------|------------------------------------|
|------------------|----------------------|------------------------------------|
|------------------|----------------------|------------------------------------|


  C                        Em/G
   E  E         E     E     E     E     E    E
|---------------------------0----------------0---|
|---------------1-----------------------0--------|
|-----0---------------0-----------0--------------|
|------------------------------------------------|
|--3---------------------------------------------|
|------------------------------------------------|
|
| +E.   a a  S  S  S  S  S  S  S  S  S  S S  S S
|-(5)-------12-10--------------------------------|
|---------x-------13-12-13-12-10-----------------|
|-------x------------------------11-12-11-9----9-|
|-------------------------------------------12---|
|------------------------------------------------|
|------------------------------------------------|


  D                                     G5
   E      E     E  E  E       E  E  E    E E E E  E E E E
|---------------------2-------------2-|-----------3-----3-|
|---------------3----------------3----|------3--------3---|
|---------2--------2----------2-------|----0---0----0-----|
|--0----------------------------------|-------------------|
|-------------------------------------|-------------------|
|-------------------------------------|--3----------------|
|
| +S   S  S  S  E  E  E       E  E  E    H        H
|--------------------10b10.5----------|-------------------|
|-----------10-12-13---------13-12-10-|----------10-------|
|-(9)-11-12---------------------------|-12----------------|
|-------------------------------------|-------------------|
|-------------------------------------|-------------------|
|-------------------------------------|-------------------|


                        Outro
                         Am      Am7         G            F
 9/8                    4/4
   W              +E      E. S E E E E E E    E E E Q  Q  E   W
|---------------------||-------------------|--------------0-|------|
|---------------------||-----------8-------|------3-------1-|------|
|---------------------||-^5--5S4-5---5---4-|-^4h5---5--4----|-2----|
|---------------------||-^7------------7---|-^5-------------|-3----|
|---------------------||-^0----------------|----------------|------|
|--0--------------(0)-||-------------------|----------------|------|
|
|  E  Q   +H.             W                   W               W
|---------------------||-------------------|----------------|------|
|-10-12--(12)---------||-------------------|----------------|------|
|---------------------||-------------------|----------------|------|
|---------------------||-------------------|----------------|------|
|---------------------||-------------------|----------------|------|
|---------------------||-------------------|----------------|------|


  Am      Am7         G                Dm7               G/E
                                                        9/8
                                                                      ~~~~~~~
   E. S E E E E E E    E E E Q  Q  E   E E E E E E E E   E E E  E  E  E  +Q.
|-------------------|----------------|-----------------|-----------------------|
|-----------8-------|------3-------5-|-6-----8---6-----|-8-----10-10S12-(12)---|
|-^5--5S4-5---5---4-|-^4h5---5--4----|---5-----5---5---|---7-------------------|
|-^7------------7---|-^5-------------|-----7---------7-|-----9-----------------|
|-^0----------------|----------------|-5---------------|-----------------------|
|-------------------|----------------|-----------------|-0---------------------|


  Am      Am7         G            Asus2 F
 4/4
   E. S E E E E E E    E E E Q  Q  S S   W          +W
|-------------------|------------------|----------|--------*|
|-----------8-------|------3---------1-|-1--------|-(1)----*|
|-^5--5S4-5---5---4-|-^4h5---5--4--2---|-2--------|-(2)----*|
|-^7------------7---|-^5---------------|-3--------|-(3)----*|
|-^0----------------|------------------|----------|--------*|
|-------------------|------------------|----------|--------*|



Duration Legend
---------------
W - whole; H - half; Q - quarter; E - 8th; S - 16th; T - 32nd; X - 64th; a - acciaccatura
+ - note tied to previous; . - note dotted; .. - note double dotted
Uncapitalized letters represent notes that are staccato (1/2 duration)
Irregular groupings are notated above the duration line
Duration letters will always appear directly above the note/fret number it represents the
duration for.  Duration letters with no fret number below them represent rests.  Multi-
bar rests are notated in the form Wxn, where n is the number of bars to rest for.  Low
melody durations appear below the staff

Tablature Legend
----------------
 h   - hammer-on
 p   - pull-off
 b   - bend
 pb  - pre-bend
 r   - bend release (if no number after the r, then release immediately)
 /\  - slide into or out of (from/to "nowhere")
 s   - legato slide
 S   - shift slide
 - natural harmonic
[n]  - artificial harmonic
n(n) - tapped harmonic
 ~   - vibrato
 tr  - trill
 T   - tap
 TP  - trem. picking
 PM  - palm muting
\n/  - tremolo bar dip; n = amount to dip
 \n  - tremolo bar down
 n/  - tremolo bar up
/n\  - tremolo bar inverted dip
 =   - hold bend; also acts as connecting device for hammers/pulls
 <> - volume swell (louder/softer)
 x   - on rhythm slash represents muted slash
 o   - on rhythm slash represents single note slash

Misc Legend
-----------
 |  - bar
||  - double bar
||o - repeat start
o|| - repeat end
*|  - double bar (ending)
 :  - bar (freetime)
 $  - Segno
 &  - Coda
Tempo markers -  = BPM(8/16=s8/s16), where s8 = swing 8ths, s16 = swing 16ths

Добавлено: 14.03.2012
Другие материалы по этой песне:

Страница создана 14.03.2012
http://primanota.ru/angel-dust/beneath-the-silence-chords.htm
Привет, Гость.
Предлагаем пройти революционный курс по гитаре.
Подарок от PrimaNota.Ru, забирай!