PrimaNota.ru - самый крупный в мире бесплатный архив песенных текстов, аккордов, табулатур и нот


Angel Dust - Ad - таба, видео

Регистрация Запомнить меня
Войти через:  Facebook Google Twitter Vk Yandex Mail.ru

Angel Dust - Ad - таба, видео

Печатать
Просмотров: 127
-------------------------------------------------------------------------------
                            A.D. - Angel Du$t
-------------------------------------------------------------------------------
Tabbed by:
E-mail:

Tuning: Drop D

e|---------------------------------------------------------------------------|
B|---------------------------------------------------------------------------|
G|---------------------------------------------------------------------------|
D|---10-9----10-9-10-9-10-9-10-9----10-9----10-9-10-9-10-9-10-9--------------|
A|---10-9----10-9-10-9-10-9-10-9----10-9----10-9-10-9-10-9-10-9--------------|
E|---10-9----10-9-10-9-10-9-10-9----10-9----10-9-10-9-10-9-10-9--------------| x2

e|---------------------------------------------------------------------------|
B|--- -----------------------------------------------------------------------|
G|---------------------------------------------------------------------------|
D|---10-9----10-9----10-9--10-9--10-9-10-9-10-9------------------------------|
A|---10-9----10-9----10-9--10-9--10-9-10-9-10-9------------------------------|
E|---10-9----10-9----10-9--10-9--10-9-10-9-10-9------------------------------| 


************************************

| /   slide up
| \   slide down
| h   hammer-on
| p   pull-off
| ~   vibrato
| +   harmonic
| x   Mute note
| b   Bend
| pb  Pre-bend
| br  Bend release
| pbr Pre-bend release
| brb Bend release bend

************************************
Добавлено: 18.07.2015
Другие материалы по этой песне:
  • Аккорды и текст

Страница создана 18.07.2015
http://primanota.ru/angel-dust/ad-chords.htm
Привет, Гость.
Предлагаем пройти революционный курс по гитаре.
Подарок от PrimaNota.Ru, забирай!