PrimaNota.ru - самый крупный в мире бесплатный архив песенных текстов, аккордов, табулатур и нот


Ange - L'espionne Lesbienne - аккорды и текст, видео

Регистрация Запомнить меня
Войти через:  Facebook Google Twitter Vk Yandex Mail.ru

Ange - L'espionne Lesbienne - аккорды и текст, видео

Печатать
Просмотров: 106
Уроки эстрадного вокала в Санкт-Петербурге
L'espionne Lesbienne
Ange
		   C#5/Bb               A7M  +5                Fm                   Em
      x 1 x 1 2 x          x 0 2 1 2 1         0 x 10 10 9 8         0 x 9 9 8 7

          G#m                   C                   Em7                D+sus4
    0 x 13 13 12 11        x 3 2 0 1 x          0 2 0 0 3 0          x x 0 7 8 6

Verse

    C#5/Bb                           A7M  +5
    Gtr I
||-------------------------------------------1----------------1--------||
||o-----2-------2--------2-------2-------2-----2----------2-----2-----o||
||----1---1---1---1----1---1---1---1---1---1-----1------1---1-----1----||
||-------------------------------------------------2----------------2--||
||o-1-------1--------1-------1-------0----------------0---------------o||
||---------------------------------------------------------------------||


    Fm               Em            Fm                G#m
||----------8------8-------7-----7---------8------8--11--11---||-|
||o-------9---9----------8---8-----------9---9-------12--12--o||-|
||-----10-------10-----9-------9------10-------10----13--13---||-|
||--10---------------9-------------10----------------13--13---||-|
||o----------------------------------------------------------o||-|
||------------------------------------------------------------||-|


    G#m               Gm                F#m              Fm
||-----------11----------------10----------------9---------------8-------||--|
||o-------12----12----------11----11----------10---10----------9---9----o||--|
||-----13----------13----12----------12----11---------11----10-------10--||--|
||--13----------------12----------------11---------------10--------------||--|
||o---------------------------------------------------------------------o||--|
||-----------------------------------------------------------------------||--|


Refrain

  C
|---------------------------------------------------------------------8h10h12--|
|------1------1------1------1---------------------------------8h10h12----------|
|----0------0------0------0---------------------------9h10h12------------------|
|---------------------------------------------9h10h12--------------------------|
|-3------3------3------3--------------8h10h12----------------------------------|
|-----------------------------8h10h12------------------------------------------|


Pont

    C                 Em7               C                 Em7
||--------0-----0-----------0-----0-----------0-----0-----------0-----0-----|
||o-----1---1-----1-------3---3-----3-------1---1-----1-------3---3-----3---|
||----0-------0-----0---0-------0-----0---0-------0-----0---0-------0-----0-|
||--------------------------------------------------------------------------|
||o-3-----------------2-----------------3-----------------2-----------------|
||--------------------------------------------------------------------------|


    D+sus4
                       4x
||--------6-----6------||----||----|
||o-----8---8-----8---o||---o||----|
||----7-------7-----7--||----||----|
||--0------------------||----||----|
||o-------------------o||---o||----|
||---------------------||----||----|


  G#m  Gm   F#m
|-11---10----9-------------|
|-12---11---10-------------|
|-13---12---11-------------|
|-13---12---11--3--2--1----|
|--------------------------|
|--------------------------|

C#5/Bb                                                          A7M  +5
De ses yeux de fauve elle chavirait de faune en faune en fausse femme
C#5/Bb                                                       A7M  +5
De ses ailes chauves souris allait de zone en zone en jeu de dames
Fm        Em    Fm       G#m
À pleines dents À pleine face
Fm  Em      Fm      G#m
Incidemment Elle te fait face

G#m           Gm            F#m         Fm
Elle est la machine Qui a fabriqué la Joconde
G#m         Gm              F#m             Fm
Suce les poitrines Des plus belles dames du monde

Elle déploie ses griffes Et se dégrafe montrant ses griffes De fausse femme
Ange aux doigts de suif Au corps trop plat au coeur en nef De " cathédrame "

Assise devant A vierge pâle
Assurément Son vagin râle

Elle est ballerine Dans un théâtre de candeur
Elle est Agrippine Sous une rampe de sueur
C
Elle est lesbienne
Elle est chienne
Elle est hyène, elle est ( ah ! )

Elle est Cayenne
Elle est Caspienne
Elle est Vienne. Elle est ( ah !.. )

Elle est suave
Elle est flave
Elle est Slave, elle est ( ah !.. )

Elle est lesbienne
Elle est chienne
Elle est hyène. Elle est ( ah ! . . )

 C Em7 C Em7 D+sus4
 C Em7 C Em7 D+sus4
  G#m  Gm   F#m

Déesse aux yeux de biche Qui défriche et qui triche Et qui brame
Où es-tu belle tarentule Dans ta toile de globules Que tu traînes ?

Plus qu'un venin Plus qu'un serpent Tu te déteins Sur mon présent

Tu es la cyprine Qui lubrifie les catacombes
A mèche d'hémoglobine Qui fera palpiter la bombe !

Добавлено: 10.10.2013
Вам также может быть интересно:
Другие материалы по этой песне:
  • Аккорды и текст

Страница создана 10.10.2013
http://primanota.ru/ange/lespionne-lesbienne-chords.htm
Привет, Гость.
Предлагаем пройти революционный курс по гитаре.
Подарок от PrimaNota.Ru, забирай!