PrimaNota.ru - самый крупный в мире бесплатный архив песенных текстов, аккордов, табулатур и нот


Ange - La Route Aux Cyprès - аккорды и текст, видео

Регистрация Запомнить меня
Войти через:  Facebook Google Twitter Vk Yandex Mail.ru

Ange - La Route Aux Cyprès - аккорды и текст, видео

Печатать
Просмотров: 73
La Route Aux Cyprès
Ange
		   LA ROUTE AUX CYPRÉS
                               As recorded by Ange
                (From the 1973 Album LE CYMETIÈRE DES ARLEQUINS)

Words by Christian Decamps
Transcribed by 20100d@ifrance.com

         A7M                 Bmadd11          A7M/E  (type 2)           A6/E
      x 0 2 1 2 0          x 2 4 4 3 0          x x 2 2 2 4          x x 2 2 2 2

           D                  Bm/D                Asus2/F
      x x 0 2 3 2          x x 0 4 3 2          x x 3 2 0 0


Intro

  A7M           Bmadd11       A7M  

|-0--0-0--0-0---0--0-0--0-0---0--0-0--0-0--|
|-2--2-2--2-2---3--3-3--3-3---2--2-2--2-2--|
|-1--1-1--1-1---4--4-4--4-4---1--1-1--1-1--|
|-2--2-2--2-2---4--4-4--4-4---2--2-2--2-2--|
|------------------------------------------|
|------------------------------------------|


 A7M/E   A6/   D
|-4--2--0--2--------2-------2---------|
|-2--2-------3----3---3---3---3----3--|
|-2--2----------2-------2--------2----|
|-2--2--------------------------------|
|-------------------------------------|
|-------------------------------------|


|-4--2--0--2--------2-------2--------2-----|
|-2--2-------3----3---3---3---3----3---3---|
|-2--2----------2-------2--------2-------2-|
|-2--2-------------------------------------|
|------------------------------------------|
|------------------------------------------|


Verse

  D       Bm/D    D       Asus2/F
|-----2-------2-------2---------0------0--------0------0-|
|---3---3---3---3---3---3-----0----0----------0----0-----|
|-2---------------2---------2--------2------2--------2---|
|---------4---------------3---------------3--------------|
|--------------------------------------------------------|
|--------------------------------------------------------|

Chorus

  A          Am         D          Dm         D           Dm          C    Bm    A#
|-----------------------2---2--2---1---1--1---2---2--2----1---1--1--------------------|
|-3---3--3---2---2--2---3---3--3---3---3--3---3---3--3----3---3--3----5----3-----3----|
|-3---3--3---3---3--3---2---2--2---2---2--2---2---2--2----2---2--2----5----4-----3----|
|-3---3--3---3---3--3-------------------------------------------------5----4-----3----|
|---------------------------------------------------------------------3----2-----1----|
|-------------------------------------------------------------------------------------|


 A7M   Bmadd11 A7M   A7M/E   A6/ D A7M/E   A6/ D

D	  Bm/D	  D          Asus2/F
Nuages de faïence relevés de nacre
    D	    	   Bm/D	          D            Asus2/F  
Mon pinceau courbe l'échine comme un cheval de fiacre
     D		 Bm/D	      D        Asus2/F
J'ai esquissé la lune sur une toile de nuit
    D	       Bm/D	   D            Asus2/F
En laissant ma fortune aux clés du paradis.

A	Am
Vent d'aquarelle
D	 Dm
Buissons huilés :
D	Dm
Palette charnelle
C          Bm   A#        Amaj 7        
Je ne suis plus un arc-en-ciel

Bmadd11 A7M   A7M/E   A6/ D A7M/E   A6/ D

Je sens que les amis sont au bout du chemin
Ils me disent que je tiens le ciel entre leurs mains
Mais mes doigts de malade craquent aux confins du vieux
J'ai senti la barrière d'où l'on voit de ses yeux!

Le coeur enduit de vin, je vexe ma cirrhose
Et d'un coup de fusain, j'éjacule une dose
Dose de narcotique que m'ont servi les dieux
Dans l'antre de ma honte retentit le coup de feu?

(Texte : Christian Decamps)
Editions CHAPPELL

Добавлено: 01.02.2014
Вам также может быть интересно:
Другие материалы по этой песне:
  • Аккорды и текст

Страница создана 01.02.2014
http://primanota.ru/ange/la-route-aux-cypres-chords.htm
Привет, Гость.
Предлагаем пройти революционный курс по гитаре.
Подарок от PrimaNota.Ru, забирай!