PrimaNota.ru - самый крупный в мире бесплатный архив песенных текстов, аккордов, табулатур и нот


Anette Olzon - Moving Away - аккорды и текст, видео

Регистрация Запомнить меня
Войти через:  Facebook Google Twitter Vk Yandex Mail.ru

Anette Olzon - Moving Away - аккорды и текст, видео

Печатать
Просмотров: 97
Moving Away
Anette Olzon
Intro thing

e|-------0-----2---0-------|-------0-----2-------0---|-------------2-------0---|-------------2-----------|
B|-----0-----0---------0---|-----0-----0-----0-------|-----1-3---1-----3-------|-----1-3---1---3-1---3---|
G|-------------------------|-------------------------|-------------------------|-------------------------|
D|-2-----------------------|-2-----------------------|-2-----------------------|-2-----------------------|
A|-------------------------|-------------------------|-------------------------|-------------------------|
E|-------------------------|-------------------------|-------------------------|-------------------------|
   Esus2                                               C/E


e|-------0-----2---0-------|-------0-----2-------0---|-------------2-----------|-------------2-----------|
B|-----0-----0---------0---|-----0-----0-----0-------|-----1-3---1-----3---1---|-----1---3---------------|
G|-------------------------|-------------------------|-------------------------|-------------------------|
D|-2-----------------------|-2-----------------------|-2-----------------------|-2-----------------------|
A|-------------------------|-------------------------|-------------------------|-------------------------|
E|-------------------------|-------------------------|-------------------------|-------------------------|
   Esus2                                               C/E
---
ORDER: I V1 C V2 C INT C O

[INTRO]
Esus2 C/E
Esus2 C/E


[VERSE 1]
  Em                C/E
  Come, so cold and alone
Em                                C/E
  Aching, worry and feel suddenly coming!
(cue a variation of the intro thing)
  Em                    C/E
  Come, don't wanna let go
Em                                  C/E
  Thinking of the years, moments of joy and blue.


[CHORUS]
               G Am
     Moving my way, 
     D         Em   Bm G5/D
     Trying to find a  place
             Am
     No more pain, 
     D         Em  C   Em 
     Hoping to see the day!
               G Am
     Come what may
     D         Em   Bm   G5/D
     No matter what they say,
             Am
     No more rain,
A7sus2           E
     Just moving away!


[VERSE 2] - intro riff variation
  Em
  As you walked out the room,
           C/E
  Couldn't believe it
Em
  What was said and done, 
             C/E
  So full of dark and blue!


[CHORUS]
               G Am
     Moving my way, 
     D         Em   Bm G5/D
     Trying to find a  place
             Am
     No more pain, 
     D         Em  C   Em 
     Hoping to see the day!
               G Am
     Come what may
     D         Em   Bm   G5/D
     No matter what they say,
             Am
     No more rain,
A7sus2           E
     Just moving away!


[INTERLUDE]
Em C/E D/E
Em C/E Bm7/E
Em C/E Bm/E
Em C/E B/E
Em


[CHORUS] - quiet until 4th line, "to see"
               G Am
     Moving my way, 
     D         Em   Bm G5/D
     Trying to find a  place
             Am
     No more pain, 
     D         Em  C   Em 
     Hoping to see the day!
               G Am
     Come what may
     D         Em   Bm   G5/D
     No matter what they say,
             Am
     No more rain,
A7sus2           E
     Just moving away!


[OUTRO]
E
  Moving away
E
  Just moving away
Добавлено: 10.12.2015
Другие материалы по этой песне:
  • Аккорды и текст

Страница создана 10.12.2015
http://primanota.ru/anette-olzon/moving-away-chords.htm
Привет, Гость.
Предлагаем пройти революционный курс по гитаре.
Подарок от PrimaNota.Ru, забирай!