PrimaNota.ru - самый крупный в мире бесплатный архив песенных текстов, аккордов, табулатур и нот


Anette Moreno - Hablame - таба, видео

Регистрация Запомнить меня
Войти через:  Facebook Google Twitter Vk Yandex Mail.ru

Anette Moreno - Hablame - таба, видео

Печатать
Просмотров: 123
Artista: Anette Moreno
Song: Hablame

vota me un 5

yo creo que esta correcta toda la cancion, solo me falta un poco de la guitarra de al 
de la cancion cuando esta por acabar e improvisa

intro

1--7-7-7----------7---8-8-8---10-8-7-8-10-8-----7-7-7----------------------------------------|
2---------------8---------------------------------------7/8-8-8/7-7-7-----8/10-10-10/8-8-8-7-|
3-------------9-------------------------------------------------------9----------------------|
4-----------9--------------------------------------------------------------------------------|
5---------7----------------------------------------------------------------------------------|
6--------------------------------------------------------------------------------------------|


1-7----------------------------------------------------------7--7-------|
2-8------8-7------------8-7-10--------10-8-7--------8-7------7--8-------|
3-9----9-----9----9----9--------7----9--------5----9---9-----7--9-------|
4-9---9-----------9---9---------7---9---------5---9-----9----9--9-------|
5-7--7------------7--7----------5--7----------3--7-------10--9--7-------|
6------------------------------------------------------------7----------|

chord
1----7----7----7----7--------------------------------------------------------|
2----8----7----7----7--------------------------------------------------------|
3----9----7----7----8--------------------------------------------------------|
4----9----9----7----9--------------------------------------------------------|
5----7----9----9----9--------------------------------------------------------|
6---------7----7----7--------------------------------------------------------|


at 1:31

1----------------------------------------------------------------------|
2--------8-7-8----12-10-12---------------------------------------------|
3-------9--------9-----------------------------------------------------|
4------9--------9------------------------------------------------------|
5-----7--------7-------------------------------------------------------|
6----------------------------------------------------------------------|

at 1:42

1---7-7-----------------------------------------------|
2---8-8-10-10-8-8-7/8---------------------------------|
3-------8--8--9-9-8/8---------------------------------|
4-----------------------------------------------------|
5-----------------------------------------------------|
6-----------------------------------------------------|


at 2:15 solo

1----------------------------------------------------------------------------7-10-8-7--8-7------|
2------------------------------------------8-8-8-7-7-----8-9--12-8-8-7-9----8--------10---10-8/12|
3----------------------12-11--12-----------9-9-9-7-7-9-9-9-10-12-9-9-7-9---9---------------------|
4-----------9-9-9-----------14--14-12-14-------------9-9------------------9----------------------|
5-7-7-7-9-10-------------------------------------------------------------7-----------------------|
6------------------------------------------------------------------------------------------------|


2:42

1----------------------------------|
2------9-9-9-9---------------------|
3-----9----------------------------|
4----9-----------------------------|
5---7------------------------------|
6----------------------------------|

2:50

1----------------------------------------------------------------|
2-13-13-13-13-11-11-11-11----------------------------------------|
3------------------------13-13-13-13-12-12-12-12-10-10-10-10-----|
4----------------------------------------------------------------|
5----------------------------------------------------------------|
6----------------------------------------------------------------|


3:00

1--------------------------------------------------------------------|
2----9--9--9-11-11-11-13-13-13---------------------------------------|
3---10-10-10-12-12-12-13-13-13---------------------------------------|
4--------------------------------------------------------------------|
5--------------------------------------------------------------------|
6--------------------------------------------------------------------|

3:10

1---------------------------------------------------------|
2----9--9--9-11--13---------------------------------------|
3---10-10-10-12--13---------------------------------------|
4---------------------------------------------------------|
5---------------------------------------------------------|
6---------------------------------------------------------|


3:12
1-------------------------------------------------------|
2-------------------------------------------------------|
3---------15-18-17-15-17-15-----------------------------|
4----15-17----------------------------------------------|
5-------------------------------------------------------|
6-------------------------------------------------------|

3:18

1----------------------------------------------------------------|
2-13-13-13-13-11-11-11-11----------------------------------------|
3------------------------13-13-13-13-12-12-12-12-10-10-10-10-----|
4----------------------------------------------------------------|
5----------------------------------------------------------------|
6----------------------------------------------------------------|

at same time
1----------------------------------------------------------------|
2----------------------------------------------------------------|
3----------------------------------------------------------------|
4----15-15-15-17-15-15-15-17-15-15-15-17-15-13-13----------------|
5----------------------------------------------------------------|
6----------------------------------------------------------------|

3:27

1-----13-13-13-13--11-11-11-11----------------------------------------------------|
2------------------------------13-13-13-13-11---11--------------------------------|
3---------------------------------------------13--12------------------------------|
4---------------------------------------------------------------------------------|
5---------------------------------------------------------------------------------|
6---------------------------------------------------------------------------------|
Добавлено: 09.03.2012
Вам также может быть интересно:
Другие материалы по этой песне:
  • Аккорды и текст

Страница создана 09.03.2012
http://primanota.ru/anette-moreno/hablame-chords.htm
Привет, Гость.
Предлагаем пройти революционный курс по гитаре.
Подарок от PrimaNota.Ru, забирай!