PrimaNota.ru - самый крупный в мире бесплатный архив песенных текстов, аккордов, табулатур и нот


Anette Moreno - Guardian De Mi Corazon - таба, видео

Регистрация Запомнить меня
Войти через:  Facebook Google Twitter Vk Yandex Mail.ru

Anette Moreno - Guardian De Mi Corazon - таба, видео

Печатать
Просмотров: 146
Hola gente aquí les va una de mis
transcripciones espero les guste suena
muy bien y que dios me los bendiga.....
y saludos a todos de la iglesia "EL REINO"


ESTE ES EL INTRO

e---------------------------------------------|
B------3—---3—---3—---3—---2—---2---—2---—2---|
G-----4—---4—---4—---4—---2—---2—---2---—2----|
D----4—---4—---4---—4—---4—---4—---4---—4—----|
A---2—---2—---2—---2—---4—---4—---4---—4------|
B---------------------------------------------|

e---------------------------------------------|
B------3----3----3----3----2----2----2----2---|
G-----4----4----4----4----3----3----3----3----|
D----4----4----4----4----4----4----4----4-----|
A---2----2----2----2----4----4----4----4------|
B---------------------------------------------|

e---------------------------------------------|
B-----3---3---3---3---2---2---2---2-----------|
G----0---0---0---0---2---2---2---2------------|
D---0---0---0---0---2---2---2---2-------------|
A--2---2---2---2---0---0---0---0--------------|
B---------------------------------------------|

e---------------------------------------------|
B-----3---3---3---3---2---2---2---2-----------|
G----2---2---2---2---2---2---2---2------------|
D---0---0---0---0---2---2---2---2-------------|
A--0---0---0---0---0---0---0---0--------------|
B---------------------------------------------|

En esta parte del intro
se toca este arpegio con  la segunda guitarra

E--14-14-14-12-10----9h10--12-12/14--14-14-14-12-10-----|
B----------------9---------------------------------9----|
G-------------------------------------------------------|
D-------------------------------------------------------|
A-------------------------------------------------------|
B-------------------------------------------------------|

E---------------------------------------------|
B-8-10-10h12----10h12-10--8-7-7h8—8h10p8-7-5--|
G-------------------------------------------7-|
D---------------------------------------------|
A---------------------------------------------|
B---------------------------------------------|

El sonido de los violines
se puede hacer con una 3ra guitarra y seria así:

E---------------------------------------------|
B---12-12-14-15-15--12-12-14-15-15-14---------|
G---------------------------------------------|
D---------------------------------------------|
A---------------------------------------------|
B---------------------------------------------|

     Como un día sin el sol
e---------------------------------------------|
B------3—---3—---3—---3—---2—---2---—2---—2---|
G-----4—---4—---4—---4—---2—---2—---2---—2----|
D----4—---4—---4---—4—---4—---4—---4---—4—----|
A---2—---2—---2—---2—---4—---4—---4---—4------|
B---------------------------------------------|

2da guitarra
e---------------------------------------------|
B------5--------------------------------------|
G---6-7-6-6h7---------------------------------|
D---------------------------------------------|
A---------------------------------------------|
B---------------------------------------------|

     Como una noche sin estrellas
e---------------------------------------------|
B------3----3----3----3----2----2----2----2---|
G-----4----4----4----4----3----3----3----3----|
D----4----4----4----4----4----4----4----4-----|
A---2----2----2----2----4----4----4----4------|
B---------------------------------------------|

e---------------------------------------------|
B---7-7-7--5----------------------------------|
G-----------6-6h7-----------------------------|
D---------------------------------------------|
A---------------------------------------------|
B---------------------------------------------|

así es una ilusión
e---------------------------------------------|
B------3—---3—---3—---3—---2—---2---—2---—2---|
G-----4—---4—---4—---4—---2—---2—---2---—2----|
D----4—---4—---4---—4—---4—---4—---4---—4—----|
A---2—---2—---2—---2—---4—---4—---4---—4------|
B---------------------------------------------|

2da guitarra
e---------------------------------------------|
B------5--------------------------------------|
G---6-7-6-6h7---------------------------------|
D---------------------------------------------|
A---------------------------------------------|
B---------------------------------------------|
                  que no puedes tenerla
e---------------------------------------------|
B------3----3----3----3----2----2----2----2---|
G-----4----4----4----4----3----3----3----3----|
D----4----4----4----4----4----4----4----4-----|
A---2----2----2----2----4----4----4----4------|
B---------------------------------------------|

2da guita
e---------------------------------------------|
B---7-7-7--5----------------------------------|
G-----------6-6h7-----------------------------|
D---------------------------------------------|
A---------------------------------------------|
B---------------------------------------------|

S e despierta el furor  guardado en mi corazón

e---------------------------------------------|
B-----3----3----3----3-----2---2---2---2------|
G----0----0----0----0-----2---2---2---2-------|
D---0----0----0----0-----2---2---2---2--------|
A--2----2----2----2-----0---0---0---0---------|
B---------------------------------------------|

  pero nadie me oye el silencio triunfó
e---------------------------------------------|
B-----3---3---3---3-----3---3---3---3---------|
G----4---4---4---4-----0---0---0---0----------|
D---4---4---4---4-----0---0---0---0-----------|
A--0---0---0---0-----2---2---2---2------------|
B---------------------------------------------|

    otra vez me mudó
e---------------------------------------------|
B-----2---2---2---2-3-3-2-2-------------------|
G----2---2---2---2----------------------------|
D---2---2---2---2-----------------------------|
A--0---0---0---0------------------------------|
B---------------------------------------------|

     Quiero curar mis heridas
e---------------------------------------------|
B------3—---3—---3—---3—---2—---2---—2---—2---|
G-----4—---4—---4—---4—---2—---2—---2---—2----|
D----4—---4—---4---—4—---4—---4—---4---—4—----|
A---2—---2—---2—---2—---4—---4—---4---—4------|
B---------------------------------------------|

2da guitarra
e---------------------------------------------|
B------5--------------------------------------|
G---6-7-6-6h7---------------------------------|
D---------------------------------------------|
A---------------------------------------------|
B---------------------------------------------|

     Pero no por encima
e---------------------------------------------|
B------3----3----3----3----2----2----2----2---|
G-----4----4----4----4----3----3----3----3----|
D----4----4----4----4----4----4----4----4-----|
A---2----2----2----2----4----4----4----4------|
B---------------------------------------------|

 2da guita
e---------------------------------------------|
B---7-7-7--5----------------------------------|
G-----------6-6h7-----------------------------|
D---------------------------------------------|
A---------------------------------------------|
B---------------------------------------------|


  Quiere calmar el veneno
e---------------------------------------------|
B------3—---3—---3—---3—---2—---2---—2---—2---|
G-----4—---4—---4—---4—---2—---2—---2---—2----|
D----4—---4—---4---—4—---4—---4—---4---—4—----|
A---2—---2—---2—---2—---4—---4—---4---—4------|
B---------------------------------------------|

2da guitarra
e---------------------------------------------|
B------5--------------------------------------|
G---6-7-6-6h7---------------------------------|
D---------------------------------------------|
A---------------------------------------------|
B---------------------------------------------|

         Para tener la verdad
e---------------------------------------------|
B------3----3----3----3----2----2----2----2---|
G-----4----4----4----4----3----3----3----3----|
D----4----4----4----4----4----4----4----4-----|
A---2----2----2----2----4----4----4----4------|
B---------------------------------------------|

2da guita
e---------------------------------------------|
B---7-7-7--5----------------------------------|
G-----------6-6h7-----------------------------|
D---------------------------------------------|
A---------------------------------------------|
B---------------------------------------------|

Así quiero sanar del cuchillo profundo
e---------------------------------------------|
B-----3----3----3----3-----2---2---2---2------|
G----0----0----0----0-----2---2---2---2-------|
D---0----0----0----0-----2---2---2---2--------|
A--2----2----2----2-----0---0---0---0---------|
B---------------------------------------------|

 Sacando los gusanos que me comen el alma
e---------------------------------------------|
B-----3---3---3---3-----3---3---3---3---------|
G----4---4---4---4-----0---0---0---0----------|
D---4---4---4---4-----0---0---0---0-----------|
A--0---0---0---0-----2---2---2---2------------|
B---------------------------------------------|

    Que me hacen llorar
e-----------------------------------------------|
B-----2---2---2---2-3-3/2-2-2-------------------|
G----2---2---2---2------------------------------|
D---2---2---2---2-------------------------------|
A--0---0---0---0--------------------------------|
B-----------------------------------------------|
    2da guita
e---------------------------------------------|
B--6-6----8-8----11-11-9-9-9-9-8-8------------|
G-----8-7----10-8-----------------------------|
D---------------------------------------------|
A---------------------------------------------|
B---------------------------------------------|

Coro

Guardián de la puerta del amor
e---------------------------------------------|
B-----3---3---3---3---0h2-----0h2-------------|
G----0---0---0---0---2---2---2----------------|
D---0---0---0---0---2-----2-2-----------------|
A--2---2---2---2---0-------0------------------|
B---------------------------------------------|

Déjame entrar necesito tu calor

e-----0h2-----0h2--------2---2---2------------|
B----3---3---3---3------4---4---4-------------|
G---2-----2-2-----2----4---4---4--------------|
D--0-------0-------0--4---4---4---------------|
A---------------------------------------------|
B---------------------------------------------|

e---------3-----------------------------------|
B---4-5-7-3-----------------------------------|
G---4-5-7-------------------------------------|
D---------------------------------------------|
A---------------------------------------------|
B---------------------------------------------|


 Quiero acariciar mi estrella otra vez
e------------------------2---2---2---2--------|
B-----0h2-----0h2-------3---3---3---3---------|
G----2---2---2---2-----2---2---2---2----------|
D---2-----2-2-----2---0---0---0---0-----------|
A--0-------0-------0--------------------------|
B---------------------------------------------|

2da guita
e---------------------------------------------|
B--5-5-6-6-8-8--8-9-8-8-7-------5-------------|
G--5-5-6-6-8-8--8-9-8-8-7----6h7-6h7----------|
D---------------------------------------------|
A---------------------------------------------|
B---------------------------------------------|

  Guardián de la puerta del valor
e---------------------------------------------|
B-----3---3---3---3---0h2-----0h2-------------|
G----0---0---0---0---2---2---2---2------------|
D---0---0---0---0---2-----2-2-----2-----------|
A--2---2---2---2---0-------0-------0----------|
B---------------------------------------------|

  Déjame entrar para decirle a Dios
e-----0h2-----0h2-----2---2---2---2-----------|
B----3---3---3-------4---4---4---4------------|
G---2-----2-2-------4---4---4---4-------------|
D--0-------0-------4---4---4---4--------------|
A---------------------------------------------|
B---------------------------------------------|

e---------------------------------------------|
B---4-5-7-------------------------------------|
G---4-5-7-------------------------------------|
D---------------------------------------------|
A---------------------------------------------|
B---------------------------------------------|

   Que ya no aguanto mas
e---------------------------------------------|
B-----3---3---3---3---0h2-----0h2-------------|
G----0---0---0---0---2---2---2---2------------|
D---0---0---0---0---2-----2-2-----2-----------|
A--2---2---2---2---0-------0-------0----------|
B---------------------------------------------|

     Lo que es la realidad
e---------------------------------------------|
B-----2---2---2---2---2---2---2---2-----------|
G----2---2---2---2---3---3---3---3------------|
D---4---4---4---4---4---4---4---4-------------|
A--4---4---4---4---4---4---4---4--------------|
B---------------------------------------------|

   Por favor guardián guardián ( se pausa el sonido )
e---------------------------------------------|
B-----3---3---3---3---2---2---2---2-----------|
G----0---0---0---0---2---2---2---2------------|
D---0---0---0---0---2---2---2---2-------------|
A--2---2---2---2---0---0---0---0--------------|
B---------------------------------------------|

   De mi corazón,
e---------------------------------------------|
B------3—---3—---3—---3—---2—---2---—2---—2---|
G-----4—---4—---4—---4—---2—---2—---2---—2----|
D----4—---4—---4---—4—---4—---4—---4---—4—----|
A---2—---2—---2—---2—---4—---4—---4---—4------|
B---------------------------------------------|

e---------------------------------------------|
B------3----3----3----3----2----2----2----2---|
G-----4----4----4----4----3----3----3----3----|
D----4----4----4----4----4----4----4----4-----|
A---2----2----2----2----4----4----4----4------|
B---------------------------------------------|

E--14-14-14-12-10----9h10--12-12/14--14-14-14-12-10-----|
B----------------9---------------------------------9----|
G-------------------------------------------------------| X 3
D-------------------------------------------------------|
A-------------------------------------------------------|
B-------------------------------------------------------|

e---------------------------------------------|
B---8-10-10h12--------------------------------|
G---------------------------------------------|
D---------------------------------------------|
A---------------------------------------------|
B---------------------------------------------|

   Necesito tu amor necesito tu calor
e---------------------------------------------|
B-----3---3---3---3---2---2---2---2-----------|
G----0---0---0---0---2---2---2---2------------|
D---0---0---0---0---2---2---2---2-------------|
A--2---2---2---2---0---0---0---0--------------|
B---------------------------------------------|

Necesito mi estrella  Guardián de la puerta
e---------------------------------------------|
B-----2---2---2---2---3---3---3---3-----------|
G----3---3---3---3---0---0---0---0------------|
D---4---4---4---4---0---0---0---0-------------|
A--4---4---4---4---2---2---2---2--------------|
B---------------------------------------------|

      dejadme entrar..............
e---------------------------------------------|
B-----3---3---3---3---2---2---2---2-----------|
G----2---2---2---2---2---2---2---2------------|
D---0---0---0---0---2---2---2---2-------------|
A--0---0---0---0---0---0---0---0--------------|
B---------------------------------------------|


  Guardián de la puerta del valor
e---------------------------------------------|
B-----3---3---3---3---0h2-----0h2-------------|
G----0---0---0---0---2---2---2---2------------|
D---0---0---0---0---2-----2-2-----2-----------|
A--2---2---2---2---0-------0-------0----------|
B---------------------------------------------|

e--11-11-9-8-13-13-11-9--18-18-16-16-15-15----|
B---------------------------------------------|
G---------------------------------------------|
D---------------------------------------------|
A---------------------------------------------|
B---------------------------------------------|

  Déjame entrar para decirle a Dios
e-----0h2-----0h2-----2---2---2---2-----------|
B----3---3---3-------4---4---4---4------------|
G---2-----2-2-------4---4---4---4-------------|
D--0-------0-------4---4---4---4--------------|
A---------------------------------------------|
B---------------------------------------------|

   Que ya no aguanto mas
e---------------------------------------------|
B-----3---3---3---3---0h2-----0h2-------------|
G----0---0---0---0---2---2---2---2------------|
D---0---0---0---0---2-----2-2-----2-----------|
A--2---2---2---2---0-------0-------0----------|
B---------------------------------------------|

     Lo que es la realidad
e---------------------------------------------|
B-----2---2---2---2---2---2---2---2-----------|
G----2---2---2---2---3---3---3---3------------|
D---4---4---4---4---4---4---4---4-------------|
A--4---4---4---4---4---4---4---4--------------|
B---------------------------------------------|

   Por favor guardián guardián ( se mata el sonido )
e---------------------------------------------|
B-----3---3---3---3---2---2---2---2-----------|
G----0---0---0---0---2---2---2---2------------|
D---0---0---0---0---2---2---2---2-------------|
A--2---2---2---2---0---0---0---0--------------|
B---------------------------------------------|

De mi corazón...........
e---------------------------------------------|
B------3—---3—---3—---3—---2—---2---—2---—2---|
G-----4—---4—---4—---4—---2—---2—---2---—2----|
D----4—---4—---4---—4—---4—---4—---4---—4—----|
A---2—---2—---2—---2—---4—---4—---4---—4------|
B---------------------------------------------|

e---------------------------------------------|
B------3----3----3----3----2----2----2----2---|
G-----4----4----4----4----3----3----3----3----|
D----4----4----4----4----4----4----4----4-----|
A---2----2----2----2----4----4----4----4------|
B---------------------------------------------|

E--14-14-14-12-10----9h10--12-12/14--14-14-14-12-10-----|
B----------------9---------------------------------9----|
G-------------------------------------------------------| x 3
D-------------------------------------------------------|
A-------------------------------------------------------|
B-------------------------------------------------------|

Fin
e--9-10-12-10-9-------------------------------|
B--------------10-7-10-10712------------------|
G---------------------------------------------|
D---------------------------------------------|
A---------------------------------------------|
B---------------------------------------------|
Добавлено: 23.03.2012
Другие материалы по этой песне:
  • Аккорды и текст

Страница создана 23.03.2012
http://primanota.ru/anette-moreno/guardian-de-mi-corazon-chords.htm
Привет, Гость.
Предлагаем пройти революционный курс по гитаре.
Подарок от PrimaNota.Ru, забирай!