PrimaNota.ru - самый крупный в мире бесплатный архив песенных текстов, аккордов, табулатур и нот


Anette Moreno - Complicado - бас-таба, видео

Регистрация Запомнить меня
Войти через:  Facebook Google Twitter Vk Yandex Mail.ru

Anette Moreno - Complicado - бас-таба, видео

Печатать
Просмотров: 127
INTRO: SOLO GUITARRA

G-----------------------------------------------|
D-----------------------------------------------|
A------00000000-------------22222222----------2-| veces
E-1/9/1-----------11111111------------00000000--|
       Aaaaaaaaa, aaaaaaaa, aaaaaaaa, aaaaaaaa

I ESTROFA
G----------------------------------------------------------------|
D----------------------------------------------------------------|
A-0----------0--0------------------2----------2--2---------------|
E-----------------------1---1-1--------------------------0---0-0-|
  Puedo decidir si quiero estar sentada en medio de la oscuridad

G----------------------------------------------------------------|
D----------------------------------------------------------------|
A-0----------0--0------------------2----------2--2---------------|
E-----------------------1---1-1------------------------0---0-0---|
  Puedo decidir si quiero morir pensando en lo que fuera de mi

G-------------------------------------------------------------------|
D-------------------------------------------------------------------|
A-0----------0--0--------------------2----------2--2----------------|
E-----------------------1---1-1-----------------------------0---0-0-|
  Aunque la ansiedad rasgue de mi la buena intención que quiero hacer

G------------------------------------------------------------------|
D------------------------------------------------------------------|
A---0----------0--0-------------------2---------2--2---------------|
E-----------------------1------1-1------------------------0----0-0-|
  Podría sobrevivir cualquier error pero no lastimar ningún corazón

CORO

G-------------------------------------------------------------------|
D-------------------------------------------------------------------|
A-0-0-0-0-0-0-0-0-0-----------------2-2-2-2-2-2-2-2-----------------|
E-------------------1-1-1-1-1-1-1-1-----------------0-0-0-0-0-0-0-0-|
  veooooooooo superficieeeeee de lo hoondooo del    maaaaaaaaaar

G--------------------------------------------------------------------|
D--------------------------------------------------------------------|
A----0-0-0-0-0-0-0-----------------2-2-2-2-2-2-2-2-------------------|
E------------------1-1-1-1-1-1-1-1-----------------0-0-0-0-0-0-0-0---|
  Luchaaaando para saaaaaaalir y poder    reespiraaaaaaaaaaaaar

G----------------------------------------------------------------------|
D----------------------------------------------------------------------|
A-----0-0-0-0-0-0-0-0-0-----------------2-2-2-2-2-2-2-2----------------|
E----------------------1-1-1-1-1-1-1-1-----------------0-0-0-0-0-0-0-0-|
  Me ahogaaaaa laaa    duuuuda   de     poder    continuaaaaaaaaaar


G-----------------------------------------------------------------------|
D-----------------------------------------------------------------------|
A-----0-0-0-0-0-0-0-0-0-----------------2-2-2-2-2-2-2-2------0----------|
E----------------------1-1-1-1-1-1-1-1-----------------0-0-0------------|
  Preeefierooo       undiiiiirme si no  voy aaa     ganaaar esta complicado

II ESTROFA
G----------------------------------------------------------------------|
D----------------------------------------------------------------------|
A-------0----------0--0---------------------2----------2--2------------|
E-1/9/1--------------------------1---1-1-----------------------0---0-0-|
        Hablo con amargura de mi corazon mi alma esta hastiada de vivir

G---------------------------------------------------------------------|
D---------------------------------------------------------------------|
A-----0----------0—0--------------------2----------2--2---------------|
E----------------------------1---1-1------------------------0---0-0---|
  Tus manos me formaron y me hicieron y ahora te has olvidado de mi

G-----------------------------------------------------------------------|
D-----------------------------------------------------------------------|
A-----0----------0—0--------------------2----------2--2-----------------|
E----------------------------1---1-1-------------------------0---0-0----|
  Que tengo yo que hace para revivir la esperanza que un día yo senti

G-------------------------------------------------------------------------|
D-------------------------------------------------------------------------|
A-----0----------0—0--------------------2--------------2--2---------------|
E--------------------------1---1-1-------------------------------0----0-0-|
  Si has cambiado en hacerme feliz te ruego pon la compasión que hay en ti

Coro
Добавлено: 20.05.2012
Другие материалы по этой песне:

Страница создана 09.04.2012
http://primanota.ru/anette-moreno/complicado-chords.htm
Привет, Гость.
Предлагаем пройти революционный курс по гитаре.
Подарок от PrimaNota.Ru, забирай!