PrimaNota.ru - самый крупный в мире бесплатный архив песенных текстов, аккордов, табулатур и нот


Ane Brun - Temporary Dive - текст песни, таба, видео

Регистрация Запомнить меня
Войти через:  Facebook Google Twitter Vk Yandex Mail.ru

Ane Brun - Temporary Dive - текст песни, таба, видео

Печатать
Просмотров: 304
Уроки эстрадного вокала в Санкт-Петербурге
-------------------------------------------------------------------------------------
Temporary Dive - Ane Brun
-------------------------------------------------------------------------------------
Tabbed by: F# 11th w3
Tuning: D-G-D-G-Bb-D (open G minor)

This song can be played in normal tuning as well, but this open G minor version
just sounds a whole lot better imho. This is the way I think Ane Brun plays it on
the studio album.

Notes between "()" are barely heard but played!
-------------------------------------------------------------------------------------
Chord shapes used:
(The names are what you're actually playing, so no 'relative to tuning' chord names)

Gm 9th       Em7 #5th     Am 11th      Cm add9      Eb           Dm sus4
|--3--|      |--0--|      |--0--|      |--x--|      |--x--|      |--x--|
|--0--|      |--2--|      |--2--|      |--5--|      |--9--|      |--7--|
|--2--|      |--0--|      |--0--|      |--0--|      |--0--|      |--0--|
|--0--|      |--2--|      |--0--|      |--0--|      |--x--|      |--x--|
|--0--|      |--x--|      |--2--|      |--5--|      |--8--|      |--7--|
|--x--|      |--2--|      |--x--|      |--x--|      |--x--|      |--x--|

Bb 6th       Eb*
|--x--|      |--x--|
|--4--|      |--0--|
|--0--|      |--0--|
|--x--|      |--x--|
|--3--|      |--x--|
|--x--|      |--1--|

-------------------------------------------------------------------------------------
Intro:

    Gm 9th                     Em7 #5th                    Am 11th
d |-------------3------------|------------0--------------|-------------0------------|
Bb|------0-------------0-----|----------2----2-----------|------2---------(2)-------|
G |----2----2------2-----2---|--------0--------0-----0---|----0----0--------------0-|
D |-----------0------0-----0-|----(2)-------------2------|-----------0--------(0)---|
G |-0------------------------|-------------------------0-|-2------------------------|
D |--------------------------|-2-------------------------|--------------------------|

    Cm add9
d |--------------------------|   Play twice
Bb|--------5-5-5-5---(5)-----|
G |--------0-0-0-0----0----0-|
D |-----------------0----0---|
G |-2/--5--------------------|
D |--------------------------|


Verse 1:

    Gm 9th                     Em7 #5th                  Am 11th
d |-------------3------------|----------0--------------|-------------0--------|
Bb|------0-------------0-----|--------2----2-----------|------2---------2-----|
G |----2----2------2-----2---|------0--------0-----0---|----0----0----------0-|
D |-----------0------0-----0-|----2-------------2------|-----------0------0---|
G |-0------------------------|-----------------------0-|-2--------------------|
D |--------------------------|-2-----------------------|----------------------|
              
    Cm add9
d |--------------------------|
Bb|--------5-5-5-5---(5)-----|
G |--------0-0-0-0----0----0-|
D |-----------------0----0---|
G |-2/--5--------------------|
D |--------------------------|

    Gm 9th                     Em7 #5th                  Am 11th
d |-------------3------------|----------0--------------|-------------0--------|
Bb|------0-------------0-----|--------2----2-----------|------2---------2-----|
G |----2----2------2-----2---|------0--------0-----0---|----0----0----------0-|
D |-----------0------0-----0-|----2-------------2------|-----------0------0---|
G |-0------------------------|-----------------------0-|-2--------------------|
D |--------------------------|-2-----------------------|----------------------|

    Cm add9
d |-------------------------|
Bb|--------5-5-5-----5-5----|
G |--------0-0-0-----0-0----|
D |-----------------------0-|
G |-2/--5---------5---------|
D |-------------------------|


Chorus 1:

    Eb                     Dm sus4                Bb 6th
d |----------------------|----------------------|--------------------|
Bb|----9-9-9-----9-9-----|----7-7-7-----7-7-----|----4-4-4-----4-4-4-|
G |----0-0-0-----0-0-----|----0-0-0-----0-0-----|----0-0-0-----0-0-0-|
D |----------------------|----------------------|--------------------|
G |-8---------8------(8)-|-7---------7-------7\-|-3---------3--------|
D |----------------------|----------------------|--------------------|

    Eb*                  Eb                        Dm sus4
d |--------------------|-------------------------|----------------------|
Bb|----0-0-0-----------|----9-9-9-----9-9--------|----7-7-7-----7-7-----|
G |----0-0-0-----0-0---|----0-0-0-----0-0--------|----0-0-0-----0-0-----|
D |------------------0-|-------------------------|----------------------|
G |--------------------|-8---------8-------8\(7)-|-7---------7-------7\-|
D |-1---------1--------|-------------------------|----------------------|

    Bb 6th               Eb*
d |--------------------|----------------------|
Bb|----4-4-4-----4-4-4-|----0-0-0-----0-------|
G |----0-0-0-----0-0-0-|----0-0-0-----0-0---0-|
D |--------------------|------------------0---|
G |-3---------3--------|----------------------|
D |--------------------|-1---------1----------|


Verse 2:

Identical to verse 1.


Chorus 2:

    Eb                     Dm sus4                Bb 6th
d |----------------------|----------------------|--------------------|
Bb|----9-9-9-----9-9-----|----7-7-7-----7-7-----|----4-4-4-----4-4-4-|
G |----0-0-0-----0-0-----|----0-0-0-----0-0-----|----0-0-0-----0-0-0-|
D |----------------------|----------------------|--------------------|
G |-8---------8-------8--|-7---------7-------7\-|-3---------3--------|
D |----------------------|----------------------|--------------------|

    Eb*                  Eb                        Dm sus4
d |--------------------|-------------------------|----------------------|
Bb|----0-0-0-----0-----|----9-9-9-----9-9--------|----7-7-7-----7-7-----|
G |----0-0-0-----0-0---|----0-0-0-----0-0--------|----0-0-0-----0-0-----|
D |--------------------|-------------------------|----------------------|
G |------------------0-|-8---------8-------8\(7)-|-7---------7-------7\-|
D |-1---------1--------|-------------------------|----------------------|

    Bb 6th               Eb*
d |--------------------|--------------------|
Bb|----4-4-4-----4-4-4-|----0-0-0-----0-----|
G |----0-0-0-----0-0-0-|----0-0-0-----0-0---|
D |--------------------|------------------0-|
G |-3---------3--------|--------------------|
D |--------------------|-1---------1--------|


Instrumental part:

Identical to verse 1.


Verse 3:

    Gm 9th                     Em7 #5th                  Am 11th
d |-------------3------------|----------0--------------|-------------0--------|
Bb|------0-------------0-----|--------2----2-----------|------2---------2-----|
G |----2----2------2-----2---|------0--------0-----0---|----0----0----------0-|
D |-----------0------0-----0-|----2-------------2------|-----------0------0---|
G |-0------------------------|-----------------------0-|-2--------------------|
D |--------------------------|-2-----------------------|----------------------|

    Cm add9
d |--------------------------|
Bb|--------5-5-5-5---(5)-----|
G |--------0-0-0-0----0----0-|
D |-----------------0----0---|
G |-2/--5--------------------|
D |--------------------------|

    Gm 9th                     Em7 #5th                  Am 11th
d |-------------3------------|----------0--------------|-------------0--------|
Bb|------0-------------0-----|--------2----2-----------|------2---------2-----|
G |----2----2------2-----2---|------0--------0-----0---|----0----0----------0-|
D |-----------0------0-----0-|----2-------------2------|-----------0------0---|
G |-0------------------------|-----------------------0-|-2--------------------|
D |--------------------------|-2-----------------------|----------------------|

    Cm add9                  Cm add9
d |------------------------|---------------------|
Bb|--------5-5-5-----5-5-5-|----5-5-5-----5-5----|
G |--------0-0-0-----0-0-0-|----0-0-0-----0-0----|
D |------------------------|-------------------0-|
G |-2/--5---------5--------|-5---------5---------|
D |------------------------|---------------------|


Chorus 3:

    Eb                     Dm sus4                Bb 6th
d |----------------------|----------------------|--------------------|
Bb|----9-9-9-----9-9-----|----7-7-7-----7-7-----|----4-4-4-----4-4-4-|
G |----0-0-0-----0-0-----|----0-0-0-----0-0-----|----0-0-0-----0-0-0-|
D |----------------------|----------------------|--------------------|
G |-8---------8-------8--|-7---------7-------7\-|-3---------3--------|
D |----------------------|----------------------|--------------------|

    Eb*                  Eb                        Dm sus4
d |--------------------|-------------------------|----------------------|
Bb|----0-0-0-----0-0---|----9-9-9-----9-9--------|----7-7-7-----7-7-----|
G |----0-0-0-----0-0---|----0-0-0-----0-0--------|----0-0-0-----0-0-----|
D |------------------0-|-------------------------|----------------------|
G |--------------------|-8---------8-------8\(7)-|-7---------7-------7\-|
D |-1---------1--------|-------------------------|----------------------|

    Bb 6th               Eb*                  Eb*               
d |--------------------|--------------------|-------------|
Bb|----4-4-4-----4-4-4-|----0-0-0-----0-0-0-|----0-0-0----|
G |----0-0-0-----0-0-0-|----0-0-0-----0-0-0-|----0-0-0----|
D |--------------------|--------------------|-------------|
G |-3---------3--------|--------------------|-------------|
D |--------------------|-1---------1--------|-1---------1-|

-------------------------------------------------------------------------------------
Hope you will enjoy this. I will record this song on my Youtube account "TubMac"
soon, will update this tab with the link as soon as it's live.
-------------------------------------------------------------------------------------
Добавлено: 30.06.2012
Другие материалы по этой песне:

Страница создана 02.03.2012
http://primanota.ru/ane-brun/temporary-dive-chords.htm
Привет, Гость.
Предлагаем пройти революционный курс по гитаре.
Подарок от PrimaNota.Ru, забирай!