PrimaNota.ru - самый крупный в мире бесплатный архив песенных текстов, аккордов, табулатур и нот


Andy Stochansky - House Of Gold - таба, видео

Регистрация Запомнить меня
Войти через:  Facebook Google Twitter Vk Yandex Mail.ru

Andy Stochansky - House Of Gold - таба, видео

Печатать
Просмотров: 123
Artist: Andy Stochansky
Song: House of Gold
Album: Five Star Motel

Tuning: Standard

There's another version of this song on this
site that says to use a capo on the 3rd fret.
This will give you the right notes, but it's
not correct. Andy doesn't use a capo, and if
you do, you won't be able to end on the proper
chord.

INTRO:
e |-(3)--3-3-----------------|
B |-(1)------1h3-3-1-1-1-1---|
G |-(0)----------------------|
D |-(0)----------------------|
A |-(3)-3-3-3---3-3-3-3-3----|
E |--------------------------|

VERSE:
e |-(3)--3-3-----------------|
B |-(1)------1h3-3-1-1-1-1---|
G |-(0)----------------------|
D |-(0)----------------------|
A |-(3)-3-3-3---3-3-3-3-3----|
E |--------------------------|
“If I had a house of gold…”


E |--------------------------|
B |--1-1-1-1-1-1-1-1---------|
G |--------------------------|
D |-------------3-3----------|
A |-0-0-2-2-3-3--------------|
E |--------------------------|
“See them point and stare and call…”

E |--------------------------|
B |--1-1-1-1-1-1-1-1---------|
G |--------------------------|
D |-3-3-2-2-0-0--------------|
A |-------------3-3----------|
E |--------------------------|
“Again I fall…”

END ON:
e |-(3)--3--|
B |-(1)--1--|
G |-(0)--0--|
D |-(0)--0--|
A |-(3)—-3--|
E |---------|
Добавлено: 14.04.2012
Другие материалы по этой песне:
  • Аккорды и текст

Страница создана 14.04.2012
http://primanota.ru/andy-stochansky/house-of-gold-chords.htm
Привет, Гость.
Предлагаем пройти революционный курс по гитаре.
Подарок от PrimaNota.Ru, забирай!