PrimaNota.ru - самый крупный в мире бесплатный архив песенных текстов, аккордов, табулатур и нот


Andy Needham - I Will Run - таба, видео

Регистрация Запомнить меня
Войти через:  Facebook Google Twitter Vk Yandex Mail.ru

Andy Needham - I Will Run - таба, видео

Печатать
Просмотров: 117
INTRO
        D                                       E                    F#m
E|-/2---x---2--x-x-x-x-2/4--4--4--5----5--5-x-x-x-x--5--5--5--|
B|-/3---x---3--x-x-x-x-3/5--5--5--7----7--7-x-x-x-x--7--7--7--|
G|-/2---x---2--x-x-x-x-2/4--4--4--6----6--6-x-x-x-x--6--6--6--|
D|------x------x-x-x-x----------------------x-x-x-x-----------|
A|------x------x-x-x-x----------------------x-x-x-x-----------|
E|------x------x-x-x-x----------------------x-x-x-x-----------|
    D                                       E               A
E|-/2---x---2--x-x-x-x-2/4--4--4------------------------------|
B|-/3---x---3--x-x-x-x-3/5--5--5--2-x-2-x-2h3p2-2-2-----------|
G|-/2---x---2--x-x-x-x-2/4--4--4--2-x-2-x-2-----2-2-----------|
D|------x------x-x-x-x------------2-x-2-x-2-----2-2-----------|
A|------x------x-x-x-x----------------------------------------|
E|------x------x-x-x-x----------------------------------------|
    D                                       E                   F#m
E|-/2---x---2--x-x-x-x-2/4--4--4--9---9-----12--12--12--9---9---|
B|-/3---x---3--x-x-x-x-3/5--5--5--10--10----10--10--10--10--10--|
G|-/2---x---2--x-x-x-x-2/4--4--4--11--11----9---9---9---9---9---|
D|------x------x-x-x-x------------11--11----11--11--11--11--11--|
A|------x------x-x-x-x------------9---9-----9---9---9---9---9---|
E|------x------x-x-x-x------------9---9-----9---9---9---9---9---|
||                                                          ||
E|--2--2-----------------4--4------2--2h4p2--2-----2-----------|
B|--3--3-----------------5--5-------------------5--------------|
G|--2--2-----------------4--4----------------------------------|
D|-------------------------------------------------------------|
A|-------------------------------------------------------------|
E|-------------------------------------------------------------|
    D                                       E               A
E|-/2---x--/2--x-x-x-x-2/-4--4--4-------------------------------|
B|-/3---x--/3--x-x-x-x-3/5--5--5--2-x-2-x-2h3p2-2-2-------------|
G|-/2---x--/2--x-x-x-x-2/4--4--4--2-x-2-x-2-----2-2-------------|
D|------x------x-x-x-x------------2-x-2-x-2-----2-2-------------|
A|------x------x-x-x-x------------------------------------------|
E|------x------x-x-x-x------------------------------------------|
||
E|----------------------------------------2h3r2---------------|
B|------------------------------------------------------------|
G|------------------------------------------------------------|
D|------------------------------------------------------------|
A|------------------------------------------------------------|
E|------------------------------------------------------------|
We've been                            called             out of darkness,
      D                                       E               F#m
E|--2---x---2--x-x-x-x-2-4--4--4--5----5--5-x-x-x-x--5--5--5--|
B|--3---x---3--x-x-x-x-3-5--5--5--7----7--7-x-x-x-x--7--7--7--|
G|--2---x---2--x-x-x-x-2/4--4--4--6----6--6-x-x-x-x--6--6--6--|
D|------x------x-x-x-x----------------------x-x-x-x-----------|
A|------x------x-x-x-x----------------------x-x-x-x-----------|
E|------x------x-x-x-x----------------------x-x-x-x-----------|


Into                                         marvelous    light
    D                                       E               A
E|--2---x---2--x-x-x-x-2-4--4--4------------------------------|
B|--3---x---3--x-x-x-x-3-5--5--5--2-x-2-x-2h3p2-2-2-----------|
G|--2---x---2--x-x-x-x-2/4--4--4--2-x-2-x-2-----2-2-----------|
D|------x------x-x-x-x------------2-x-2-x-2-----2-2-----------|
A|------x------x-x-x-x----------------------------------------|
E|------x------x-x-x-x----------------------------------------|


We've been                             called sons and   daughters
    D                                       E               F#m
E|--2---x---2--x-x-x-x-2-4--4--4--9---9-----12--12--12--9---9---|
B|--3---x---3--x-x-x-x-3-5--5--5--10--10----10--10--10--10--10--|
G|--2---x---2--x-x-x-x-2/4--4--4--11--11----9---9---9---9---9---|
D|------x------x-x-x-x------------11--11----11--11--11--11--11--|
A|------x------x-x-x-x------------9---9-----9---9---9---9---9---|
E|------x------x-x-x-x------------9---9-----9---9---9---9---9---|
 through                               his great           sacrifice
    D                                       E               A
E|--2---x---2--x-x-x-x-2-4--4--4------------------------------|
B|--3---x---3--x-x-x-x-3-5--5--5--2-x-2-x-2h3p2-2-2-----------|
G|--2---x---2--x-x-x-x-2/4--4--4--2-x-2-x-2-----2-2-----------|
D|------x------x-x-x-x------------2-x-2-x-2-----2-2-----------|
A|------x------x-x-x-x----------------------------------------|
E|------x------x-x-x-x----------------------------------------|
                  Bm                        D                              A             
       E
Now let us throw aside, every hint of pride, laying every burden down
                  Bm                        D                              A             
       E
And let us run this race, living all our days, for His Name and renown

Chorus:
           D           A    E
I will run, run, run, You are my everything
              D        A      E
What amazing love, came down and rescued me
 D            A                  E    F#m
Now my chains are gone, and I'm pressing on
D E D E
After You I run, run, run
      D                                   E                                  F#m
E|--2--2--2--2--2--2/4--4---4---4---4---5----5---5-----------------|
B|--3--3--3--3--3--3-5--5---5---5---5---7----7---7-----------------|
G|--2--2--2--2--2--2-4--4---4---4---4---6----6---6-----------------|
D|-----0-----------------------------------------------------------|
A|-----------------------------------------------------------------|
E|-----------------------------------------------------------------|
||
E|----------------------------------------------------17--16--14v--|
B|-----------------------------------------------------------------|
G|-----------------------------------------------------------------|
D|--15--15--15--15--15/17--17--17--17--17/18--18--18---------------|
A|-----------------------------------------------------------------|
E|-----------------------------------------------------------------|
    D                                       E               A
E|--2---x---2--x-x-x-x-2-4--4--4------------------------------|
B|--3---x---3--x-x-x-x-3-5--5--5--2-x-2-x-2h3p2-2-2-----------|
G|--2---x---2--x-x-x-x-2/4--4--4--2-x-2-x-2-----2-2-----------|
D|------x------x-x-x-x------------2-x-2-x-2-----2-2-----------|
A|------x------x-x-x-x----------------------------------------|
E|------x------x-x-x-x----------------------------------------|
VERSE 2
You   are                                God,               like no other,
    D                                       E               F#m
E|--2---x---2--x-x-x-x-2-4--4--4--9---9-----12--12--12--9---9---|
B|--3---x---3--x-x-x-x-3-5--5--5--10--10----10--10--10--10--10--|
G|--2---x---2--x-x-x-x-2/4--4--4--11--11----9---9---9---9---9---|
D|------x------x-x-x-x------------11--11----11--11--11--11--11--|
A|------x------x-x-x-x------------9---9-----9---9---9---9---9---|
E|------x------x-x-x-x------------9---9-----9---9---9---9---9---|



we had
E|--14--17--14------14-----------------------------------|
B|--------------17------17--14---------------------------|
G|------------------------------14—16—14h16r14------14---|
D|----------------------------------------------16-------|
A|-------------------------------------------------------|
E|-------------------------------------------------------|
from Your face
E|----------------------------------7------|
B|--------------7----7-----7-----7-----10/-|
G|-----7-----7----------9-----9------------|
D|--9-----9--------------------------------|
A|-----------------------------------------|
E|-----------------------------------------|
But because of Your kindness
  E|--5----4----------------------------------------------|
  B|------------5--5h7----7--5----------------------------|
  G|----------------------------7--5----------------------|
  D|-------------------------------------7----------------|
               A|-----------------------------------------|
  E|------------------------------------------------------|
Jesus died in our place
  E|------------------------|
  B|------------------------|
  G|-----6-----8-----10v--\-|
  D|--4-----6-----8---------|
  A|------------------------|
  E|------------------------|
Help us to understand, how this perfect plan
Is much more than we deserve
O, make our every move in pursuit of You
Be our wellspring and our thirst
Chorus:
           D           A    E
I will run, run, run, You are my everything
              D        A      E
What amazing love, came down and rescued me
 D            A                  E    F#m
Now my chains are gone, and I'm pressing on
D E D E
After You I run, run, run

Bridge
Bm                                      D
Turning my eyes on You, running hard after You
A                      E
Things of the world growing dim
Bm                                          D
I am living by Your design, pressing on towards the price
A                                E
All that I have Lord I give

Bm                                                                         D
Turning my eyes on You,                                      running hard after You
E|--------------------------------------------------------------------|
B|--12/15--15--15--15--14--14--12------12/15--15--15--15--14--14--12--|
G|--------------------------------------------------------------------|
D|--------------------------------------------------------------------|
A|--------------------------------------------------------------------|
E|--------------------------------------------------------------------|

A                        E
Things of the world growing     dim                               I am
E|----------------------------------------------|
B|----------------------------------------------|
G|--6--6--6--6----6------4--4--4--4----4--2--4--|
D|----------------------------------------------|
A|----------------------------------------------|
E|----------------------------------------------|

Bm
I am living by Your design,
E|--------------------------------------------------|
B|--12/15--15--15--15--15--14--12--14--14--14--14v--|
G|--------------------------------------------------|
D|--------------------------------------------------|
A|--------------------------------------------------|
E|--------------------------------------------------|

D
pressing on towards the price
E|--------------------------------------------------|
B|--12/15--15--15--15--15--14--12--14--14--14--14v--|
G|--------------------------------------------------|
D|--------------------------------------------------|
A|--------------------------------------------------|
E|--------------------------------------------------|


A                               E
All that I have Lord I give
Chorus:
D          A                  E
I will run, run, run, You are my everything
D                                A                         E
What amazing love, came down and rescued me
D                              A           E        F#m
Now my chains are gone, and I'm pressing on
D E D E
After You I run, run, run
D         A            E
run, run, run, You are my everything
D                                A                          E
What amazing love, came down and rescued me
D                                A           E        F#m
Now my chains are gone, and I'm pressing on
D E D E
After You I run, run, run














   D                                       E               F#m
E|--2---x---2--x-x-x-x-2-4--4--4--5----5--5-x-x-x-x--5--5--5--|
B|--3---x---3--x-x-x-x-3-5--5--5--7----7--7-x-x-x-x--7--7--7--|
G|--2---x---2--x-x-x-x-2/4--4--4--6----6--6-x-x-x-x--6--6--6--|
D|------x------x-x-x-x----------------------x-x-x-x-----------|
A|------x------x-x-x-x----------------------x-x-x-x-----------|
E|------x------x-x-x-x----------------------x-x-x-x-----------|

    D                                       E               A                 Yes I wil run
E|--2---x---2--x-x-x-x-2-4--4--4------------------------------|
B|--3---x---3--x-x-x-x-3-5--5--5--2-x-2-x-2h3p2-2-2-----------|
G|--2---x---2--x-x-x-x-2/4--4--4--2-x-2-x-2-----2-2-----------|
D|------x------x-x-x-x------------2-x-2-x-2-----2-2-----------|
A|------x------x-x-x-x----------------------------------------|
E|------x------x-x-x-x----------------------------------------|
    D                                       E               F#m
E|--2---x---2--x-x-x-x-2-4--4--4--9---9-----12--12--12--9---9---|
B|--3---x---3--x-x-x-x-3-5--5--5--10--10----10--10--10--10--10--|
G|--2---x---2--x-x-x-x-2/4--4--4--11--11----9---9---9---9---9---|
D|------x------x-x-x-x------------11--11----11--11--11--11--11--|
A|------x------x-x-x-x------------9---9-----9---9---9---9---9---|
E|------x------x-x-x-x------------9---9-----9---9---9---9---9---|

    D                                       E               A                            
    (let ring)
E|--2---x---2--x-x-x-x-2-4--4--4---------------------------|
B|--3---x---3--x-x-x-x-3-5--5--5--2-x-2-x-2----------------|
G|--2---x---2--x-x-x-x-2/4--4--4--2-x-2-x-2----------------|
D|------x------x-x-x-x------------2-x-2-x-2----------------|
A|------x------x-x-x-x-------------------------------------|
E|------x------x-x-x-x-------------------------------------|

http://www.andyneedham.net/
Добавлено: 15.07.2012
Другие материалы по этой песне:
  • Аккорды и текст

Страница создана 15.07.2012
http://primanota.ru/andy-needham/i-will-run-chords.htm
Привет, Гость.
Предлагаем пройти революционный курс по гитаре.
Подарок от PrimaNota.Ru, забирай!