PrimaNota.ru - самый крупный в мире бесплатный архив песенных текстов, аккордов, табулатур и нот


Andy Mckee - Ouray - таба, видео

Регистрация Запомнить меня
Войти через:  Facebook Google Twitter Vk Yandex Mail.ru

Andy Mckee - Ouray - таба, видео

Печатать
Просмотров: 178
Ouray
Andy McKee
Tuning: C G D G B E 

|-----------------|------------------|
|-----------------|------------------|
|-----------------|------------------|
|---0---0---0---0-|---0---0---0---0--|
|-0---0---0---0---|-0---0---0---0----|
|-----------------|------------------|

|---------0-----2-----0-----|---------0-----3-2-0-----|
|---3-------------0-------3-|---3-------------------3-|
|-----2-------0-------------|-----2-------0-----------|
|---0-------0-------0---0---|---0-------0-----0---0---|
|-0-----0-------0-----0-----|-0-----0-------0---0-----|
|---------------------------|-------------------------|

|---------0-----2-----0-----|
|---3-------------0-------3-|
|-----2-------0-------------|
|---0-------0-------0---0---|
|-0-----0-------0-----0-----|
|---------------------------|

|---------0-----3-2-----2---|---------0-----2-----0-----|
|---3---------------3h5---3-|---3-------------0-------3-|
|-----2-------0-------------|-----2-------0-------------|
|---0-------0-----0-----0---|---0-------0-------0---0---|
|-0-----0-------0---0-------|-0-----0-------0-----0-----|
|---------------------------|---------------------------|

|---------0-----3-2-0-----|---------0-----2-----0-----|
|---3-------------------3-|---3-------------0-------3-|
|-----2-------0-----------|-----2-------0-------------|
|---0-------0-----0---0---|---0-------0-------0---0---|
|-0-----0-------0---0-----|-0-----0-------0-----0-----|
|-------------------------|---------------------------|

|---------0-----3-2-----2----|
|---3---------------3h5---3--|
|-----2-------0--------------|
|---0-------0-----0-----0----|
|-0-----0-------0---0--------|
|----------------------------|

|---------------------|---------7---------------10---|-------------------------|
|---1---3-------5---7-|---7--------------7h8-------8-|---1-------3---5-------7-|
|---0---0-----0-----0-|-----7--------7---------------|---0-----0-----0-----0---|
|---2---4---5-------7-|---7-------7--7---7h9--9----9-|---2---4-------5---7-----|
|---------------------|-0-----0----------0-------0---|-------------------------|
|-0---0---0-------0---|------------------------------|-0---0-------0---0-------|

|---------3-------------3-|-------------------------|
|---3-----------3-------3-|---1-------3---5-------7-|
|-----5-------5---4-------|---0-----0-----0-----0---|
|---5-------5-------5---5-|---2---4-------5---7-----|
|-0-----0-------0-----0---|-------------------------|
|-------------------------|-0---0-------0---0-------|

|---------7---------------10----|
|---7--------------7h8-------8--|
|-----7--------7----------------|
|---7-------7--7---7h9--9----9--|
|-0-----0----------0-------0----|
|-------------------------------|

|-------------------|-----------------|-0---0---------0-----------|
|---12---10---8---7-|---5---3---1---0-|-1---1---1-----------1-----|
|----0----0---0---0-|---0---0---0---0-|-2---------2-------2---2---|
|---12---10---9---7-|---5---4---2---0-|---2-----2-------2-------2-|
|-------------------|-----------------|-2-----2-----2-------2-----|
|-0----0----0---0---|-0---0---0---0---|---------------------------|

|-3---3---------3-----------|-3---3---------3-----------|
|-3---3---3-----------3-----|-3---3---3-----------3-----|
|-4---4-----4-------4---4---|-5---5-----5-------5---5---|
|---5-----5-------5-------5-|---5-----5-------5-------5-|
|-4-----4-----4-------4-----|-5-----5-----5-------5-----|
|---------------------------|---------------------------|

|NH---------------------------------------------|
|------------------7----------------------------|
|------7-----------------------7----------------|
|----------7---------------7-------7-------5----|
|------7---------------7---------------7--------|
|--7-----------7---------------7-----------5----|
|-----------------------------------------------|

|---------0-----2-----0-----|---------0-----3-2-0-----|
|---3-------------0-------3-|---3-------------------3-|
|-----2-------0-------------|-----2-------0-----------|
|---0-------0-------0---0---|---0-------0-----0---0---|
|-0-----0-------0-----0-----|-0-----0-------0---0-----|
|---------------------------|-------------------------|

|---------0-----2-----0-----|---------0-----3-2-----2---|
|---3-------------0-------3-|---3---------------3h5---3-|
|-----2-------0-------------|-----2-------0-------------|
|---0-------0-------0---0---|---0-------0-----0-----0---|
|-0-----0-------0-----0-----|-0-----0-------0---0-------|
|---------------------------|---------------------------|

|-------------------------|
|---1-------3---5-------7-|
|---0-----0-----0-----0---|
|---2---4-------5---7-----|
|-------------------------|
|-0---0-------0---0-------|

|---------7---------------10---|--------------------------|
|---7--------------7h8-------8-|---1-------3---5-------7--|
|-----7--------7---------------|---0-----0-----0-----0----|
|---7-------7-(7)--7h9--9----9-|---2---4-------5---7------|
|-0-----0----------0-------0---|--------------------------|
|------------------------------|-0---0-------0---0--------|

|---------3-------------3-|-------------------------|
|---3-----------3-------3-|---1-------3---5-------7-|
|-----5-------5---4-------|---0-----0-----0-----0---|
|---5-------5-------5---5-|---2---4-------5---7-----|
|-0-----0-------0-----0---|-------------------------|
|-------------------------|-0---0-------0---0-------|

|---------7---------------10----|
|---7--------------7h8-------8--|
|-----7--------7----------------|
|---7-------7--7---7h9--9----9--|
|-0-----0----------0-------0----|
|-------------------------------|

|-------------------|-----------------|
|---12---10---8---7-|---5---3---1---0-|
|----0----0---0---0-|---0---0---0---0-|
|---12---10---9---7-|---5---4---2---0-|
|-------------------|-----------------|
|-0----0----0---0---|-0---0---0---0---|

|--------------------|------------------0-|
|---12---10---8---15-|---13---12---10---0-|
|----0----0---0----0-|----0----0----0---0-|
|---12---10---9---16-|---14---12---10-----|
|--------------------|--------------------|
|-0----0----0---0----|-0----0----0----0---|

|-------0---------------2---------|
|-0---------0-----3---------3-----|
|---0-----------0---2-----------0-|
|-----4-------4-------4-------4---|
|---------4---------------2-------|
|-4---------------2---------------|

|-------5---------------|---------2-------------------|
|---3---------3---------|---2h3---------3-------------|
|---0-------0---------0-|-------------2---2-------0---|
|---4-----4-----4---4---|---2h4-----4-------4---4-----|
|-----0-----------------|-----------------------------|
|-0-----------0---0-----|-2-----2-------2-----2-------|

|-------0-------------|-------0---------------2---------|
|---3---------3-------|-0---------0-----3---------3-----|
|-----------0---------|---0-----------0---2-----------0-|
|---2-----2-----2---0-|-----4-------4-------4-------4---|
|---------------------|---------4---------------2-------|
|-0---0-------0---0---|-4---------------2---------------|

|-------5---------------|---------2------------------|
|---3---------3---------|---2h3---------3------------|
|---0-------0---------0-|-------------2---2-------0--|
|---4-----4-----4---4---|---2h4-----4-------4---4----|
|-----0-----------------|----------------------------|
|-0-----------0---0-----|-2-----2-------2-----2------|

|-------0---------------|---------0-----------------|
|---3---------3---------|---3-----------3---------3-|
|-----------0---------0-|-----0-------0---------0---|
|---2-----2-----2---2---|---2-------2--------2------|
|-----------------------|---------------------------|
|-0---0-------0---0-----|-0-----0-------0-0--0------|

|---------0-----------0----------|
|---3-----------3---------3------|
|-----0-------0---0-----------0--|
|---2-------2-------2-------2----|
|--------------------------------|
|-0-----0-------0-------0--------|

|-------0---------------0---------|
|-3---------3-----3---------3-----|
|---0-----------0---0-----------2-|
|-----2-------2-------2-------0---|
|---------------------------------|
|-0-------0-------0-------0-------|

|---------0-----2-----0-----|---------0-----3-2-0------|
|---3-------------0-------3-|---3-------------------3--|
|-----2-------0-------------|-----2-------0------------|
|---0-------0-------0---0---|---0-------0-----0---0----|
|-------0-------0-----0-----|-0-----0-------0---0------|
|-0-------------------------|--------------------------|

|---------0-----2-----0-----|
|---3-------------0-------3-|
|-----2-------0-------------|
|---0-------0-------0---0---|
|-0-----0-------0-----0-----|
|---------------------------|

|---------0-----3-2-----2---|---------0-----2-----0-----|
|---3---------------3h5---3-|---3-------------0-------3-|
|-----2-------0-------------|-----2-------0-------------|
|---0-------0-----0-----0---|---0-------0-------0---0---|
|-0-----0-------0---0-------|-------0-------0-----0-----|
|---------------------------|-0-------------------------|

|---------0-----3-2-0-----|---------0-----2-----0-----|
|---3-------------------3-|---3-------------0-------3-|
|-----2-------0-----------|-----2-------0-------------|
|---0-------0-----0---0---|---0-------0-------0---0---|
|-0-----0-------0---0-----|-0-----0-------0-----0-----|
|-------------------------|---------------------------|

|---------0-----3-2-----2----|
|---3---------------3h5---3--|
|-----2-------0--------------|
|---0-------0-----0-----0----|
|-0-----0-------0---0--------|
|----------------------------|

|---------------------|---------7---------------10---|-------------------------|
|---1---3-------5---7-|---7--------------7h8-------8-|---1-------3---5-------7-|
|---0---0-----0-----0-|-----7--------7---------------|---0-----0-----0-----0---|
|---2---4---5-------7-|---7-------7--7---7h9--9----9-|---2---4-------5---7-----|
|---------------------|-0-----0----------0-------0---|-------------------------|
|-0---0---0-------0---|------------------------------|-0---0-------0---0-------|

|---------3-------------3-|-------------------------|
|---3-----------3-------3-|---1-------3---5-------7-|
|-----5-------5---4-------|---0-----0-----0-----0---|
|---5-------5-------5---5-|---2---4-------5---7-----|
|-0-----0-------0-----0---|-------------------------|
|-------------------------|-0---0-------0---0-------|

|---------7---------------10----|
|---7--------------7h8-------8--|
|-----7--------7----------------|
|---7-------7--7---7h9--9----9--|
|-0-----0----------0-------0----|
|-------------------------------|

|-------------------|-----------------|-0---0---------0-----------|
|---12---10---8---7-|---5---3---1---0-|-1---1---1-----------1-----|
|----0----0---0---0-|---0---0---0---0-|-2---------2-------2---2---|
|---12---10---9---7-|---5---4---2---0-|---2-----2-------2-------2-|
|-------------------|-----------------|-2-----2-----2-------2-----|
|-0----0----0---0---|-0---0---0---0---|---------------------------|

|-3---3---------3-----------|-3---3---------3-----------|
|-3---3---3-----------3-----|-3---3---3-----------3-----|
|-4---4-----4-------4---4---|-5---5-----5-------5---5---|
|---5-----5-------5-------5-|---5-----5-------5-------5-|
|-4-----4-----4-------4-----|-5-----5-----5-------5-----|
|---------------------------|---------------------------|

 NH----------------------------------------------|
|------------------7-----------------------------|
|------7-----------------------7-----------------|
|----------7---------------7-------7-------5-----|
|------7---------------7---------------7---------|
|--7-----------7---------------7-----------5-----|
|------------------------------------------------|

Hope You Enjoy!
Добавлено: 20.04.2012
Другие материалы по этой песне:

Страница создана 12.03.2012
http://primanota.ru/andy-mckee/ouray-chords.htm
Привет, Гость.
Предлагаем пройти революционный курс по гитаре.
Подарок от PrimaNota.Ru, забирай!