PrimaNota.ru - самый крупный в мире бесплатный архив песенных текстов, аккордов, табулатур и нот


Andy Mckee - Nocturne - таба, видео

Регистрация Запомнить меня
Войти через:  Facebook Google Twitter Vk Yandex Mail.ru

Andy Mckee - Nocturne - таба, видео

Печатать
Просмотров: 213
*please note this is not my own work, its the guitar pro version submitted by Dr_ZeAlMo 
just in text/tab format for those who don't have guitar pro*

Andy McKee - Nocturne


              NH                                          NH    NH
      Q       Q    Q    E.   T  T     E  E  E  E  Q       E     E
D ||-------<>12---------3p---2p-1h-|--0----------------------------|
A#||-------<>12---------0----------|-----0-------------------<>12--|
F ||-------<>12---------0----------|-----------0--L----------------|
D#||-------<>12---------0----------|--------0----------<>12--------|
G ||-------------------------------|-------------------------------|
C ||--0------------0---------------|--0-----------0----------------|


          NH
  Q       Q    Q    E.   T  T     E  E  E  E  E  E  E  E
-------<>12---------3p---2p-1h-|--0-----------------------|
--L----<>12---------0----------|-----0-----------0--------|
-------<>12---------0----------|-----------0--7--------0--|
-------<>12---------0----------|--------0-----------6-----|
-------------------------------|--------------------------|
--0------------0---------------|--0-----------5-----------|


         NH
  Q      Q    Q    E.   T  T     E  E  E  E  Q    E  E
-------<>7---------3p---2p-1h-|--0----------------------|
-------<>7---------0----------|-----0----------------0--|
--L----<>7---------0----------|-----------0--L----------|
-------<>7---------0----------|--------0----------0-----|
------------------------------|-------------------------|
--0-----------0---------------|--0-----------0----------|


          NH
  Q       Q    Q    E.   T  T     E  E  E  E  E  E  E  E
-------<>12---------3p---2p-1h-|--0-----------------------|
--L----<>12---------0----------|-----0-----------0--------|
-------<>12---------0----------|-----------0--7--------0--|
-------<>12---------0----------|--------0-----------6-----|
-------------------------------|--------------------------|
--0------------0---------------|--0-----------5-----------|


          S     NH         T         T             NH              T      T
  Q       E     S S  S   S S S  S  S E     E.  S   E  S  S  S S  S S S  S E
-------<>12-----------------------------|-------------7h-8p-7-------------0--|
-------<>12--------------------------7--|--------<>7----------9p-7---7h-9----|
-------<>12----------------0------------|--------<>7-------------------------|
-------<>12------------------6h-7h-9----|--------<>7---------------7---------|
--3----------<>12-7h-8h-10--------------|--7---7-----------------------------|
--3----------<>12-----------------------|------------------------------------|


          S     NH         T         T             NH           T       T
  Q       E     S S  S   S S S  S  S E     E.  S   E  S S S S S S S S S S
-------<>12-----------------------------|-------------7-8-7-------------0-|
-------<>12--------------------------7--|--------<>7--------9-7---7-9-7---|
-------<>12----------------0------------|--------<>7----------------------|
-------<>12------------------6h-7h-9----|--------<>7------------7---------|
--3----------<>12-7h-8h-10--------------|--7---7--------------------------|
--3----------<>12-----------------------|---------------------------------|


          NH    NH         T          T
                                                 |--3--|
  Q       E     S S  S   S S S  S S S S    E  E  E  E  E  E  E  E  E
-------<>12-----------------------------|-----------------------------|
-------<>12------------------7s---4---0-|--------------0--------------|
-------<>12----------------7--------5---|-----------7--------0--L-----|
-------<>12-----------------------------|--------7--------6-----------|
--3----------<>12-7h-8h-11--------------|-----5--------------------5--|
--3----------<>12-----------------------|--5--------------------5-----|


        |--3--|                           |--3--|
  E  E  E  E  E  E  E  E.  T T      E  E  E  E  E  E  E  E  E
--------------------------------||-----------------------------|
--------------0-----------------||--------------0-----------0--|
--L--------7--------0----------*||--L--------7--------0--------|
--------7--------6-------------*||--------7--------6-----6-----|
-----5-----------------3---2-1--||-----5-----------------5-----|
--5--------------------3---2-1--||--5--------------------5-----|


   E  E  E   E   E  E  E  E     E  E  E  E  E  E  E  E
---------0-------------------|--------0-----------------|
-----------------------0-----|--------------------0-----|
------0-------------0--------|-----0-----------0--------|
--11------------11-----------|--4-----------4-----------|
--10------------10-----------|--3-----------3-----------|
--10--------10--10--------0--|--3--------3--3--------3--|


   E  E  E   E   E  E  E  E     E  E  E  E   E  E  E  E
---------0-------------------|--------0------------------|
-----------------------0-----|---------------------0-----|
------0-------------0--------|-----0------------0--------|
--11------------11-----------|--4------------9-----------|
--10------------10-----------|--3-----------10-----------|
--10--------10--10--------0--|--3--------3---9--------9--|


   E  E  E   E   E  E  E  E     E  E  E  E  E  E  E  E
---------0-------------------|--------0-----------------|
-----------------------0-----|--------------------0-----|
------0-------------0--------|-----0-----------0--------|
--11------------11-----------|--4-----------4-----------|
--10------------10-----------|--3-----------3-----------|
--10--------10--10--------0--|--3--------3--3--------3--|


   E  E  E   E   E  E  E  E     E  E  E  E   E  E  E  E
---------0-------------------|--------0------------------|
-----------------------0-----|---------------------0-----|
------0-------------0--------|-----0------------0--------|
--11------------11-----------|--4------------9-----------|
--10------------10-----------|--3-----------10-----------|
--10--------10--10--------0--|--3--------3---9--------9--|


                                   |--3--|
  E  E  E  E  E  E  E  E     E  E  E  E  E  E  E  E.  T  T
-----------0--L-----------|--------------------------------|
-----------------------0--|--L-----------0-----------------|
--------------------------|-----------7--------0-----------|
--------9-----------9-----|--------7--------6--------------|
-----7-----------7--------|-----5-----------------3---2--1-|
--7-----------7-----------|--5--------------------3---2p-1-|


          NH                                      NH    NH
  Q       Q    Q    E  S S    E  E  E  E  Q       E     E
-------<>12---------3--2-1-|--0----------------------------|
-------<>12---------0------|-----0-------------------<>12--|
-------<>12---------0------|-----------0--L----------------|
-------<>12---------0------|--------0----------<>12--------|
---------------------------|-------------------------------|
--0------------0-----------|--0-----------0----------------|


           NH
   Q       Q    Q    E.  T T    E  E  E  E  E  E  E  E
--------<>12---------3---2-1-|--0-----------------------|
---L----<>12---------0-------|-----0-----------0--------|
--------<>12---------0-------|-----------0--7--------0--|
--------<>12---------0-------|--------0-----------6-----|
-----------------------------|--------------------------|
---0------------0------------|--0-----------5-----------|


                   Neck Bend
        NH    NH   NH                                          NH    NH
  |-----3-----|
  E     E     E    Q       Q    E.  T T    E  E  E  E  Q       E     E
--------------------------------3---2-1-|--0----------------------------|
-----------------<>7------------0-------|-----0-------------------<>12--|
-----------------<>7~-----------0-------|-----------0--L----------------|
-----------<>12-----------------0-------|--------0----------<>12--------|
-----<>12-------------------------------|-------------------------------|
--0------------------------0------------|--0-----------0----------------|


           NH
   Q       Q    Q    E.  T T    E  E  E  E  E  E  E  E
--------<>12---------3---2-1-|--0-----------------------|
---L----<>12---------0-------|-----0-----------0--------|
--------<>12---------0-------|-----------0--7--------0--|
--------<>12---------0-------|--------0-----------6-----|
-----------------------------|--------------------------|
---0------------0------------|--0-----------5-----------|


          NH    NH                             NH
  Q       E     S S S  S S S S S E     E.  S   E  S S S S S S S S E
-------<>12-------------------------|-------------7-8-7-----------0--|
-------<>12----------------------7--|--------<>7--------9-7---7-9----|
-------<>12--------------0----------|--------<>7---------------------|
-------<>12----------------6-7-9----|--------<>7------------7--------|
--3----------<>12-7-8-10------------|--7---7-------------------------|
--3----------<>12-------------------|--------------------------------|


          NH    NH                             NH
  Q       E     S S S  S S S S S E     E.  S   E  S S S S S S S S S S
-------<>12-------------------------|-------------7-8-7---------------|
-------<>12----------------------7--|--------<>7--------9-7---------0-|
-------<>12--------------0----------|--------<>7--------------7-9-7---|
-------<>12----------------6-7-9----|--------<>7------------7---------|
--3----------<>12-7-8-10------------|--7---7--------------------------|
--3----------<>12-------------------|---------------------------------|


          NH    NH
                                               |--3--|
  Q       E     S S S  S S S  S S S S    E  E  E  E  E  E  E  E  E
-------<>12---------------------------|-----------------------------|
-------<>12----------------7s---4---0-|--------------0--------------|
-------<>12--------------7--------5---|--L--------7--------0--------|
-------<>12---------------------------|--------7--------6-----------|
--3----------<>12-7-8-11--------------|-----5--------------------5--|
--3----------<>12---------------------|--5--------------------5-----|


        |--3--|
  E  E  E  E  E  E  E  E  E      E  E  E   E   E  E  E  E
-----------------------------|---------0-------------------|
--------------0-----------0--|-----------------------0-----|
--0--------7--------0--------|------0-------------0--------|
--------7--------6-----6-----|--11------------11-----------|
-----5-----------------5-----|--10------------10-----------|
--5--------------------5-----|--10--------10--10--------0--|


  E  E  E  E  E  E  E  E      E  E  E   E   E  E  E  E
--------0-----------------|---------0-------------------|
--------------------0-----|-----------------------0-----|
-----0-----------0--------|------0-------------0--------|
--4-----------4-----------|--11------------11-----------|
--3-----------3-----------|--10------------10-----------|
--3--------3--3--------3--|--10--------10--10--------0--|


  E  E  E  E   E  E  E  E      E  E  E   E   E  E  E  E
--------0------------------|---------0-------------------|
---------------------0-----|-----------------------0-----|
-----0------------0--------|------0-------------0--------|
--4------------9-----------|--11------------11-----------|
--3-----------10-----------|--10------------10-----------|
--3--------3---9--------9--|--10--------10--10--------0--|


  E  E  E  E  E  E  E  E      E  E  E   E   E  E  E  E
--------0-----------------|---------0-------------------|
--------------------0-----|-----------------------0-----|
-----0-----------0--------|------0-------------0--------|
--4-----------4-----------|--11------------11-----------|
--3-----------3-----------|--10------------10-----------|
--3--------3--3--------3--|--10--------10--10--------0--|


  E  E  E  E   E  E  E  E      E  E   E  E   H
--------0------------------|-------------0---L--------||
---------------------0-----|--------------------------||
-----0------------0--------|------0-------------------||
--4------------9-----------|---------11---------------||
--3-----------10-----------|--------------------------||
--3--------3---9--------9--|--10------------10--------||




Duration Legend
---------------
W - whole
H - half
Q - quarter
E - 8th
S - 16th
T - 32nd
X - 64th
. - note dotted
|-n-|  - n-tuplets


Tablature Legend
----------------
L - tied note
x - dead note
g - grace note
(n) - ghost note
> - accentuded note
NH - natural harmonic
AH - artificial harmonic
TH - tapped harmonic
SH - semi harmonic
PH - pitch harmonic
h - hammer on
p - pull off
b - bend
br - bendRelease
pb - preBend
pbr - preBendRelease
brb - bendReleaseBend
\n/ - tremolo bar dip
\n - tremolo bar dive
-/n - tremolo bar Release up
/n\ - tremolo bar inverted dip
/n - tremolo bar return
-\n - tremolo bar Release down
S - shift slide
s - legato slide
/ -  slide into from below or out of upwards
\ -  slide into from above or out of downwards
~ - vibrato
W - wide vibrato
tr - trill
TP - tremolo picking
T - tapping
S - slap
P - pop
< - fade in
^ - brush up
v - brush down
Добавлено: 15.07.2012
Другие материалы по этой песне:

Страница создана 10.04.2012
http://primanota.ru/andy-mckee/nocturne-chords.htm
Привет, Гость.
Предлагаем пройти революционный курс по гитаре.
Подарок от PrimaNota.Ru, забирай!