PrimaNota.ru - самый крупный в мире бесплатный архив песенных текстов, аккордов, табулатур и нот


Andy Mckee - Keys To The Hovercar - таба, видео

Регистрация Запомнить меня
Войти через:  Facebook Google Twitter Vk Yandex Mail.ru

Andy Mckee - Keys To The Hovercar - таба, видео

Печатать
Просмотров: 168
tuning: ECDGAD (the C is 3 half steps ABOVE the normal A)  


PM palm mute
X  hit string with your thumb 
B  bend
SH slap harmonic
NH natural harmonic                                                               

D|--------------------------0-----|
A|------------------------0---0---|
G|------------0---------0-------0-|
D|--------0-----0-----0-----------|
C|------0-----------0-------------|
E|-0--5-----3-----1---------------|

|----------------|---------------------------|
|----------------|-----0---------------------|
|----------------|--0-----0------------------|
|-0----------3/4-|----------------0----------|
|---3--------1/2-|-------------0--------0----|
|-----1---0------|----------8--------7-----3-|

|--------------------------0-----|----------------|
|------------------------0---0---|----------------|
|------------0---------0-------0-|----------------|
|-------0------0-----0-----------|-0----------3/4-|
|----0-------------0-------------|---3--------1/2-|
|-5--------3-----1---------------|-----1---0------|
                             
                              (00:16)
|----------------------------|--------------------------0-----------|
|-----0----------------------|--------------0-----------------------|
|--0-----0-------------------|--------0--------0--------------------|
|----------------0-----------|-----0-----------------0-----------0--|
|-------------0--------0-----|-----------4--------6-----------0-----|
|----------8--------7-----3--|--5--------------------------3--------|

|--------------------------0-----------|------------------------0---------|
|--------------0-----------------------|------------0---------------------|
|--------0--------0--------------------|------0--------0------------------|
|-----0-----------------0-----------0--|---0-----------------0-----------0|
|-----------4--------6-----------0-----|---------4--------6-----------0---|
|--5--------------------------3--------|5--------------------------3------|

|--------------------------0-----------|----------------------------------|
|--------------0-----------------------|------------------------0---------|
|--------0--------0--------------------|---------------------0------------|
|-----0-----------------0--------------|------0--------0------------------|
|-----------4--------6--------x-----0--|---0-----x--4-----6--------x-----0|
|--5--------------------------x--3-----|5--------x-----------------x--3---|

|--------------------------0-----------|----------------------------------|
|-----------------------0--------------|------------------------0---------|
|--------0--------0--------------------|---------------------0------------|
|-----0--------------------------------|------0--------0------------------|
|-----------x--4-----6--------x-----0--|---0-----x--4-----6--------x-----0|
|--5--------x-----------------x--3-----|5--------x-----------------x--3---|

|--------------------------0-----------|4---------------------------------|
|-----------------------0--------------|------------------------0---------|
|--------0--------0--------------------|---------------------0------------|
|-----0--------------------------------|------0--------0------------------|
|-----------x--4-----6--------x-----0--|---0-----x--4-----6--------x-----0|
|--5--------x-----------------x--3-----|5--------x-----------------x--3---|

|--------------------5--4--0-----------|----------------------------------|
|--------------------------0-----------|------------------------0---------|
|--------0--------0-----0--------0-----|---------------------0------------|
|-----0-----------------------------4--|------4--------0------------------|
|-----------x--4-----6--------x--------|---0-----x--4-----6--------x-----0|
|--5--------x-----------------x--3-----|5--------x-----------------x--3---|

|--------------------------0-----------|4-----------------0---------------|
|-----------------------0--------------|------------------------0---------|
|--------0--------0--------------------|---------------------0------------|
|-----0--------------------------------|------0--------0------------------|
|-----------x--4-----6--------x-----0--|---0-----x--4-----6--------x-----0|
|--5--------x-----------------x--3-----|5--------x-----------------x--3---|

|--------------------4h5--7--------0--|----------------------------------|
|-------------------------0-----5-----|------------------------0---------|
|--------0--------0----0--------------|---------------------0------------|
|-----0-------------------------------|------0--------0------------------|
|-----------x--4-----6-------x--------|---0-----x--7-----(b9)-------x---0|
|--5--------x----------------x--7-----|8--------x-----------------x--7---|

|--------------------------------------|4-----------------0---------------|
|--------------------------------------|------------------------0---------|
|--------------------------------------|---------------------0------------|
|--------0-----------------------------|------0--------0------------------|
|-----0-----x-----0-----0-----x-----0--|---0-----x--4-----6--------x-----0|
|--8--------x--7-----8-----7--x--3-----|5--------x-----------------x--3---|

|--------------------5--4--0-----------|----------------------------------|
|--------------------------0-----------|------------------------0---------|
|--------0--------0-----0--------0-----|---------------------0------------|
|-----0-----------------------------4--|------4--------0------------------|
|-----------x--4-----6--------x--------|---0-----x--4-----6--------x-----0|
|--5--------x-----------------x--3-----|5--------x-----------------x--3---|

|-------------------------------0--|4---------------------------------|
|----------------------------0-----|------------------------0---------|
|--------0--------0-------0--------|---------------------0------------|
|-----0--------------4h5-----------|------0--------0------------------|
|-----------x--4-----3h4-----------|---0-----x--4-----6--------x-----0|
|--5--------x----------------------|5--------x-----------------x--3---|

|--------------------4h5--7--------0--|----------------------------------|
|-------------------------0-----5-----|------------------------0---------|
|--------0--------0----0--------------|---------------------0------------|
|-----0-------------------------------|------0--------0------------------|
|-----------x--4-----6-------x--------|---0-----x--7-----(b9)-------x---0|
|--5--------x----------------x--7-----|8--------x-----------------x--7---|

                                         (01:03)
|--------------------------------------||------------0--------------0|
|--------------------------------------||---------3--------------3---|
|--------------------------------------||--------0---------------0---|
|--------0-----------------------------||-----3---------------3------|
|-----0-----x-----0-----0-----x-----0--||---0--------------0---------|
|--8--------x--7-----8-----7--x--3-----||1--------------1------------|


|-----------------0--------------------|----------------------------0--|
|--3-----------3-----3--------0--------|-----------SH----0h2-----2-----|
|-----4-----4-----------4-----------0--|-----------12----0-------0-----|
|--------3-----------------3-----3-----|--------0--12----0h2--2--------|
|--------------------------------------|-----0-----12------------------|
|--3-----------------------------------|--5--------12------------------|

            SH
|-----------12----5p4-----0-----------|
|--------0--12---------5-----0-----3--|
|-----0-----12------------------0-----|
|--4--------12------------------------|
|-------------------------------------|
|-------------------------------------|

|----------------0--------------0--|
|-----------3----------------3-----|
|-----------0----------------0-----|
|--------3----------------3--------|
|-----0----------------0-----------|
|--1----------------1--------------|

|--------------0--4h5--7t--0h2--0--|
|--3--3--3--3----------------------|
|--2--2--2--2--0--4h5--7t--0h2--0--|
|--3--3--3--3----------------------|
|----------------------------------|
|--3--3--3--3----------------------|

(01:15)
|--------------------------------------|
|--------------------------0-----------|
|-----------------------0--------------|
|--------0--------0--------------------|
|-----0-----x--4-----6--------x-----0--|
|--5--------x-----------------x--3-----|

|--------------------------0-----------| 
|-----------------------0--------------|
|--------0--------0--------------------|
|-----0--------------------------------|
|-----------x--4-----6--------x-----0--|
|--5--------x-----------------x--3-----|

|--------------------------------------|
|--------------------------0-----------|
|-----------------------0--------------|
|--------0--------0--------------------|
|-----0-----x--4-----6--------x-----0--|
|--5--------x-----------------x--3-----|

|--------------------------0-----------|
|-----------------------0--------------|
|--------0--------0--------------------|
|-----0--------------------------------|
|-----------x--4-----6--------x-----0--|
|--5--------x-----------------x--3-----|

|--4--------------0----------------12----|
|------------------------------12--------|
|--------------------NH----12------------|
|--------0-----------12------------12----|
|-----0-----x--4-------------------------|
|--5--------x-----0----------------------|

|--------------------5--4--0-----------|
|--------------------------0-----------|
|--------0--------0-----0--------0-----|
|-----0-----------------------------4--|
|-----------x--4-----6--------x--------|
|--5--------x-----------------x--3-----|

|--------------------------------------|
|--------------------------0-----------|
|-----------------------0--------------|
|--------4--------0--------------------|
|-----0-----x--4-----6--------x-----0--|
|--5--------x-----------------x--3-----|

|--------------------------0-----------|
|-----------------------0--------------|
|--------0--------0--------------------|
|-----0--------------------------------|
|-----------x--4-----6--------x-----0--|
|--5--------x-----------------x--3-----|

|--4-----5-----7-----4-----5-----7-----|
|--------------------------0-----------|
|-----------------------0--------------|
|--------0--------0--------------------|
|-----0-----x--4-----6--------x-----0--|
|--5--------x-----------------x--3-----|

|--4-----5-----0-----------0-----------|
|--------------------4-----------0-----|
|--------0--------0-----0-----------0--|
|-----0--------------------------------|
|-----------x--4-----6--------x--------|
|--5--------x-----------------x--7-----|

|--------------------------------------|
|--------------------------0-----------|
|-----------------------0--------------|
|--------0--------0--------------------|
|-----0-----x--7-----(b9)-----x-----0--|
|--8--------x-----------------x--7-----|

|---------------------------------------|
|---------------------------------------|
|---------------------------------------|
|--------0------------------------------|
|-----0-----x-----0-----0-----x-----0---|
|--8--------x--7-----8-----7--x--3------|


(01:36)
|---------------0--------------0--|
|------------3--------------3-----|
|-----------0---------------0-----|
|--------3---------------3--------|
|------0--------------0-----------|
|---1--------------1--------------|

|-----------------0--------------------|
|--3-----------3-----3--------0--------|
|-----4-----4-----------4-----------0--|
|--------3-----------------3-----3-----|
|--------------------------------------|
|--3-----------------------------------|

|----------------------------0--|
|-----------SH----0h2-----2-----|
|-----------12----0-------0-----|
|--------0--12----0h2--2--------|
|-----0-----12------------------|
|--5--------12------------------|

            SH
|-----------12----5p4-----0-----------|
|--------0--12---------5-----0-----3--|
|-----0-----12------------------0-----|
|--4--------12------------------------|
|-------------------------------------|
|-------------------------------------|

|----------------0--------------0--|
|-----------3----------------3-----|
|-----------0----------------0-----|
|--------3----------------3--------|
|-----0----------------0-----------|
|--1----------------1--------------|

|--------------0--4h5--7t--0h2--0--|
|--3--3--3--3----------------------|
|--2--2--2--2--0--4h5--7t--0h2--0--|
|--3--3--3--3----------------------|
|----------------------------------|
|--3--3--3--3----------------------|

    PM PM PM       PM   PM                 
||----------------------------------|
||----------------------------------|
||------------0h2------------0h2p0--|
||---------4------------0h4---------|
||------2----------0h2--------------|
||---0------------------------------|

  PM PM PM        PM   PM                 
|----------------------------------|
|----------------------------------|
|-----------0h2-------------0h2p0--|
|--------4-------------0h4---------|
|-----2-----------0h2--------------|
|--0-------------------------------|

  PM   PM       PM  PM PM             
|---------------------------------|
|---------------------------------|
|----------0h4-------------0h2p0--|
|--------------------0------------|
|-------3-------0h1-----3---------|
|--0h1----------------------------|

  PM     PM     PM  PM PM             
|---------------------------------|
|---------------------------------|
|----------0h4-------0-----0h2p0--|
|---------------0h1-----3---------|
|-------3-------------------------|
|--0h1----------------------------|

|-------------0----------------------|
|---------------------0--------------|
|--------0h4-----4p0--------0--------|
|--------0h5-----5p0--------------0--|
|--0---------------------6-----6-----|
|-----5------------0-----------------|

                        SH                                   SH
|-----------------------12-------||-------------------------12----|
|--------------------5--12----5--||--------------------(b9)-12----|
|-----------------0--4--12----4--||-----------------0--7----12----|
|--------------0--------12-------||--------------0----------12----|
|--0-----0-----------------------||--0-----0----------------------|
|-----7-----8--------------------||-----7-----8-------------------|


   PM   PM  PM PM                    
|------------------4-----4-----4-----|
|------------------0-----0-----0-----|
|------------------6-----6-----6-----|
|------------5-----5-----------------|
|-------4h6-----6--x--6-----x-----6--|
|--3h5-------------x--------x--------|

   PM   PM  PM PM                    
|------------------5-----5-----5-----|
|------------------7-----7-----7-----|
|------------------0-----0-----0-----|
|------------5-----7-----------------|
|-------4h6-----6--x--7-----x-----7--|
|--3h5-------------x--------x--------|

   PM   PM  PM PM                    
|------------------4-----4-----4-----|
|------------------0-----0-----0-----|
|------------------6-----6-----6-----|
|------------5-----5-----------------|
|-------4h6-----6--x--6-----x-----6--|
|--3h5-------------x--------x--------|

   PM   PM  PM PM                    
|------------------7-----7-----7-----|
|------------------5-----5-----5-----|
|------------------0-----0-----0-----|
|------------5-----7-----------------|
|-------4h6-----6--x--7-----x-----7--|
|--3h5-------------x--------x--------|

   PM   PM  PM PM                    
|------------------2-----2-----2-----|
|------------------0-----0-----0-----|
|------------------4-----4-----4-----|
|------------3-----3-----------------|
|-------2h4-----4--x--4-----x-----4--|
|--1h3-------------x--------x--------|

   PM   PM  PM PM                    
|------------------3-----3-----3-----|
|------------------5-----5-----5-----|
|------------------0-----0-----0-----|
|------------3-----5-----------------|
|-------2h4-----4--x--5-----x-----5--|
|--1h3-------------x--------x--------|

   PM   PM  PM PM                    
|------------------2-----2-----2-----|
|------------------0-----0-----0-----|
|------------------4-----4-----4-----|
|------------3-----3-----------------|
|-------2h4-----4--x--4-----x-----4--|
|--1h3-------------x--------x--------|

|----------------------------0-----|--2h4--0-----------0--------------|
|-------------------------------0--|----------0-----------------------|
|-----------------------4h5--------|-------------0--------------------|
|------------3-----3h5-------------|----------------4--------0---0----|
|-------2h4-----4------------------|----------------------x--0---0----|
|--1h3-----------------------------|----0-----------------x--1---1----|

                                    PM   PM  PM PM                    
|-----------------0--------------|------------------4-----4-----4-----|
|--0-----------------------------|------------------0-----0-----0-----|
|-----0--------0--------0---0----|------------------6-----6-----6-----|
|--------0--------------0---0----|------------5-----5-----------------|
|-----------6--------x--0---0----|-------4h6-----6--x--6-----x-----6--|
|--7-----------------x--8---8----|--3h5-------------x--------x--------|

   PM   PM  PM PM                    
|------------------5-----5-----5-----|
|------------------7-----7-----7-----|
|------------------0-----0-----0-----|
|------------5-----7-----------------|
|-------4h6-----6--x--7-----x-----7--|
|--3h5-------------x--------x--------|

   PM   PM  PM PM                    
|------------------4-----4-----4-----|
|------------------0-----0-----0-----|
|------------------6-----6-----6-----|
|------------5-----5-----------------|
|-------4h6-----6--x--6-----x-----6--|
|--3h5-------------x--------x--------|

   PM   PM  PM PM                    
|------------------7-----7-----7-----|
|------------------5-----5-----5-----|
|------------------0-----0-----0-----|
|------------5-----7-----------------|
|-------4h6-----6--x--7-----x-----7--|
|--3h5-------------x--------x--------|

   PM   PM  PM PM                    
|------------------2-----2-----2-----|
|------------------0-----0-----0-----|
|------------------4-----4-----4-----|
|------------3-----3-----------------|
|-------2h4-----4--x--4-----x-----4--|
|--1h3-------------x--------x--------|

   PM   PM  PM PM                    
|------------------3-----3-----3-----|
|------------------5-----5-----5-----|
|------------------0-----0-----0-----|
|------------3-----5-----------------|
|-------2h4-----4--x--5-----x-----5--|
|--1h3-------------x--------x--------|

   PM   PM  PM PM                    
|------------------2-----2-----2-----|
|------------------0-----0-----0-----|
|------------------4-----4-----4-----|
|------------3-----3-----------------|
|-------2h4-----4--x--4-----x-----4--|
|--1h3-------------x--------x--------|

|----------------------------0-----|
|-------------------------------0--|
|-----------------------4h5--------|
|------------3-----3h5-------------|
|-------2h4-----4------------------|
|--1h3-----------------------------|

  PM PM PM       PM   PM                 
|---------------------------------|
|---------------------------------|
|-----------0h2------------0h2p0--|
|--------4------------0h4---------|
|-----2----------0h2--------------|
|--0------------------------------|

  PM PM PM       PM   PM                  
|---------------------------------|
|---------------------------------|
|-----------0h2------------0h2p0--|
|--------4------------0h4---------|
|-----2----------0h2--------------|
|--0------------------------------|

   PM   PM  PM PM                    
|------------------2-----2-----2-----|
|------------------0-----0-----0-----|
|------------------4-----4-----4-----|
|------------3-----3-----------------|
|-------2h4-----4--x--4-----x-----4--|
|--1h3-------------x--------x--------|

   PM   PM  PM PM                    
|------------------3-----3-----3-----|
|------------------5-----5-----5-----|
|------------------0-----0-----0-----|
|------------3-----5-----------------|
|-------2h4-----4--x--5-----x-----5--|
|--1h3-------------x--------x--------|

  PM PM PM       PM   PM                 
|---------------------------------|
|---------------------------------|
|-----------0h2------------0h2p0--|
|--------4------------0h4---------|
|-----2----------0h2--------------|
|--0------------------------------|

  PM PM PM       PM   PM                 
|---------------------------------|
|---------------------------------|
|-----------0h2------------0h2p0--|
|--------4------------0h4---------|
|-----2----------0h2--------------|
|--0------------------------------|

   PM   PM  PM PM                    
|------------------2-----2-----2-----|
|------------------0-----0-----0-----|
|------------------4-----4-----4-----|
|------------3-----3-----------------|
|-------2h4-----4--x--4-----x-----4--|
|--1h3-------------x--------x--------|

   PM   PM  PM PM                    
|------------------3-----3-----3-----|
|------------------5-----5-----5-----|
|------------------0-----0-----0-----|
|------------3-----5-----------------|
|-------2h4-----4--x--5-----x-----5--|
|--1h3-------------x--------x--------|

   PM   PM  PM PM                    
|------------------2-----2-----2-----|
|------------------0-----0-----0-----|
|------------------4-----4-----4-----|
|------------3-----3-----------------|
|-------2h4-----4--x--4-----x-----4--|
|--1h3-------------x--------x--------|

|----------------------------0-----|--2h4--0-----------0--------------|
|-------------------------------0--|----------0-----------------------|
|-----------------------4h5--------|-------------0--------------------|
|------------3-----3h5-------------|----------------4--------0---0----|
|-------2h4-----4------------------|----------------------x--0---0----|
|--1h3-----------------------------|----0-----------------x--1---1----|

|-----------------0---------|--------------------------0-----------|
|--0------------------------|--------------0-----------------------|
|-----0--------0--------0---|--------0--------0--------------------|
|--------0--------------0---|-----0-----------------0-----------0--|
|-----------6--------x--0---|-----------4--------6-----------0-----|
|--7-----------------x--8---|--5--------------------------3--------|

|--------------------------0-----------|
|--------------0-----------------------|
|--------0--------0--------------------|
|-----0-----------------0-----------0--|
|-----------4--------6-----------0-----|
|--5--------------------------3--------|
                                                  
|--------------------------0-----------|
|--------------0-----------------------|
|--------0--------0--------------------|
|-----0-----------------0-----------0--|
|-----------4--------6-----------0-----|
|--5--------------------------3--------|

|-----------------------------|
|--------------0--------------|
|--------0--------0-----------|
|-----0-----------------------|
|-----------4--------6--------|
|--5--------------------------|

|--4-----------------------------------|
|--------------------------0-----------|
|--------0--------------0--------------|
|-----0-----------0--------------------|
|-----------x--4-----6--------x-----0--|
|--5--------x-----------------x--3-----|

|--------------------5--4--0-----------|
|--------------------------0-----------|
|--------0--------0-----0--------0-----|
|-----0-----------------------------4--|
|-----------x--4-----6--------x--------|
|--5--------x-----------------x--3-----|

|--------------------------------------|
|--------------------------0-----------|
|-----------------------0--------------|
|--------4--------0--------------------|
|-----0-----x--4-----6--------x-----0--|
|--5--------x-----------------x--3-----|

|--------------------------0-----------|
|-----------------------0--------------|
|--------0--------0--------------------|
|-----0--------------------------------|
|-----------x--4-----6--------x-----0--|
|--5--------x-----------------x--3-----|

|--4-----------------0-----------------|
|--------------------------0-----------|
|--------0--------------0--------------|
|-----0-----------0--------------------|
|-----------x--4-----6--------x-----0--|
|--5--------x-----------------x--3-----|

|--------------------4h5--7--------0--|
|-------------------------0-----5-----|
|--------0--------0----0--------------|
|-----0-------------------------------|
|-----------x--4-----6-------x--------|
|--5--------x----------------x--7-----|


|--------------------------------------|
|--------------------------0-----------|
|-----------------------0--------------|
|--------0--------0--------------------|
|-----0-----x--7-----(b9)-------x-----0--|
|--8--------x-----------------x--7-----|


|---------------------------------------|
|---------------------------------------|
|---------------------------------------|
|--------0------------------------------|
|-----0-----x-----0-----0-----x-----0---|
|--8--------x--7-----8-----7--x--3------|


   PM   PM  PM PM                    
|------------------5-----5-----5-----|
|------------------7-----7-----7-----|
|------------------0-----0-----0-----|
|------------5-----7-----------------|
|-------4h6-----6--x--7-----x-----7--|
|--3h5-------------x--------x--------|

   PM   PM  PM PM                    
|------------------4-----4-----4-----|
|------------------0-----0-----0-----|
|------------------6-----6-----6-----|
|------------5-----5-----------------|
|-------4h6-----6--x--6-----x-----6--|
|--3h5-------------x--------x--------|

   PM   PM  PM PM                    
|------------------7-----7-----7-----|
|------------------5-----5-----5-----|
|------------------0-----0-----0-----|
|------------5-----7-----------------|
|-------4h6-----6--x--7-----x-----7--|
|--3h5-------------x--------x--------|

   PM   PM  PM PM                    
|------------------2-----2-----2-----|
|------------------0-----0-----0-----|
|------------------4-----4-----4-----|
|------------3-----3-----------------|
|-------2h4-----4--x--4-----x-----4--|
|--1h3-------------x--------x--------|

   PM   PM  PM PM                    
|------------------3-----3-----3-----|
|------------------5-----5-----5-----|
|------------------0-----0-----0-----|
|------------3-----5-----------------|
|-------2h4-----4--x--5-----x-----5--|
|--1h3-------------x--------x--------|

   PM   PM  PM PM                    
|------------------2-----2-----2-----|
|------------------0-----0-----0-----|
|------------------4-----4-----4-----|
|------------3-----3-----------------|
|-------2h4-----4--x--4-----x-----4--|
|--1h3-------------x--------x--------|

   PM   PM  PM PM                    
|------------------5-----5-----5-----|
|------------------3-----3-----3-----|
|------------------0-----0-----0-----|
|------------3-----5-----------------|
|-------2h4-----4--x--5-----x-----5--|
|--1h3-------------x--------x--------|

   PM   PM  PM PM                    
|------------------4-----4-----4-----|
|------------------0-----0-----0-----|
|------------------6-----6-----6-----|
|------------5-----5-----------------|
|-------4h6-----6--x--6-----x-----6--|
|--3h5-------------x--------x--------|

   PM   PM  PM PM                    
|------------------5-----5-----5-----|
|------------------7-----7-----7-----|
|------------------0-----0-----0-----|
|------------5-----7-----------------|
|-------4h6-----6--x--7-----x-----7--|
|--3h5-------------x--------x--------|

   PM   PM  PM PM                       PM   PM  PM PM            
|------------------4-----4-----4-----|----------------------------|
|------------------0-----0-----0-----|----------------------------|
|------------------6-----6-----6-----|----------------------------|
|------------5-----5-----------------|------------5---------------|
|-------4h6-----6--x--6-----x-----6--|-------4h6-----6------------|
|--3h5-------------x--------x--------|--3h5-------------5---------|
Добавлено: 07.04.2012
Другие материалы по этой песне:

Страница создана 07.04.2012
http://primanota.ru/andy-mckee/keys-to-the-hovercar-chords.htm
Привет, Гость.
Предлагаем пройти революционный курс по гитаре.
Подарок от PrimaNota.Ru, забирай!