PrimaNota.ru - самый крупный в мире бесплатный архив песенных текстов, аккордов, табулатур и нот


Andy Grammer - Ladies - таба, видео

Регистрация Запомнить меня
Войти через:  Facebook Google Twitter Vk Yandex Mail.ru

Andy Grammer - Ladies - таба, видео

Печатать
Просмотров: 98
Standard tuning. great song to play and has great sound on an acoustic. i think a 
little might be wrong in the bridge but i think it's good enough.

Intro/ Verse
e|----------------------|
B|----------------------|
G|---4-4-x--------------|
D|---5-5-x-5-x----------|
A|---------7-x-5--3-3---|
E|-------------7--5-5---|X19


Chorus
    G            A
e|-------------------------|
B|-------------------------|
G|--4--4--4--4/-55-5-------|
D|--5--5--5--5/-55-5-------|
A|--5--5--5--5/-55-5-------|
E|--3--3--3--3/-55-5-------|


Verse
______
Chorus
______
Bridge
    C           G             B            E
e|-------------------------------------------------|
B|--1xxx1-1-1--------------------------------------|
G|--0xxx0-0-0----------------2xxx2-2-2----1---1-1-1|
D|--2xxx2-2-2---0xxx0-0-0----1xxx1-1-1----2xxx2-2-2|
A|--3xxx3-3-3---2xxx2-2-2----2xxx2-2-2----2xxx2-2-2|
E|--------------3xxx3-3-3-----------------0xxx0-0-0|

Bridge Pt. 2
    G   G   B   E   G   G   F F
e|--3~--2~--0~--0~--3~--2~-----------|
B|--3~--0~--0~--0~--3~--0~-----------|
G|--0~--0~--2~--0~--0~--0~--4-4------|
D|--0~--0~--1~--2~--0~--0~--3-3------|
A|--2~--0~--2~--2~--2~--0~--3-3------|
E|--3~--3~--0~--0~--3~--3~--1-1-(x12)|


Verse

Chorus

Outro (Verse)
Добавлено: 01.09.2013
Другие материалы по этой песне:
  • Аккорды и текст

Страница создана 01.09.2013
http://primanota.ru/andy-grammer/ladies-chords.htm
Привет, Гость.
Предлагаем пройти революционный курс по гитаре.
Подарок от PrimaNota.Ru, забирай!