PrimaNota.ru - самый крупный в мире бесплатный архив песенных текстов, аккордов, табулатур и нот


Andy Davis - Laugh So You Dont Cry - аккорды и текст, таба, видео

Регистрация Запомнить меня
Войти через:  Facebook Google Twitter Vk Yandex Mail.ru

Andy Davis - Laugh So You Dont Cry - аккорды и текст, таба, видео

Печатать
Просмотров: 144
Laugh So You Dont Cry
Andy Davis
-------------------------------------------------------------------------------
                             LAUGH SO YOU DON'T CRY - Andy Davis
-------------------------------------------------------------------------------
Tabbed by: Matt
Email: mg62188@bellsouth.net

Great song. My first tab. Still working on the intro.

Chords Used
     G     D    D/C#   Bm7    Asus4    A7   Esus4   E    D/F#
e|---3-----2-----0------0-------0-----0-----0-----0-----0------------------|
B|---3-----3-----3------3-------3-----2-----0-----0-----3------------------|
G|---0-----2-----2------2-------0-----0-----2-----1-----2------------------|
D|---0-----0-----0------0-------2-----2-----2-----2-----0------------------|
A|---2-----x-----4------2-------0-----0-----2-----2-----0------------------|
E|---3-----x-----x------x-------x-----x-----0-----0-----2------------------|

Tuning: Standard

Intro:
e|---5-3-5-3-5p3---2---10-8/9-5-1/2-2-0---------0---0-------------3-2-----|
B|-3-------------3---3------------------3-----3---3---3-------3-------3---|
G|----------------------------------------3/4-----------4-3/4---4---------|
D|------------------------------------------------------------------------|
A|------------------------------------------------------------------------|
E|------------------------------------------------------------------------|

Verse:
          D       D/C#       Bm7     Asus4
We'll rent a comedy, rewind the best parts,
         G             D    G
And we'll memorize the lines.
          D       D/C#       Bm7     Asus4
I'll call everyone and they can come over
         G             Asus4     A7
If it keeps things off your mind.
G          D     Asus4   A7
Hey I've got a couple ideas
G          D      Asus4      A7
Tell me if you're up for this

CHORUS:
  G              D      D/C#
Well Try my best to be funny yeah
G                D      D/C#
You forget for a while
Bm7             Esus4     E
Wrote a song for you honey
G                 
You should laugh so you don't cry
G                      D
Laugh so you don't cry.

VERSE 2:
        D        D/C#        Bm7     Asus4
You used to love when I came up with surprises
G                   D         G
And would drag you off someplace
        D        D/C#        Bm7     Asus4
Let's get you in the car and out of this house
G                  Asus4         A7
Cause I miss the smile on your face
G          D     Asus4      A7
And I'm here to keep that chin up
G          D     Asus4      A7
It looks like you need cheering up

CHORUS:
G                 D     D/C#
Well try my best to be funny yeah
G                 D     D/C#
You forget for a while
Bm7            Esus4    E
Wrote a song for you honey
G                 
You should laugh so you don't cry
G                        G               Bm7
Laugh so you don't cry, so you don't cry

BRIDGE:
Bm7            
We're not kissing good-bye
G        
What happened?
Bm7            
The only tears you should cry
G       
Cry laughing
Bm7                Asus4               Esus4           E
I think it's about time that you get yourself out of hiding
Esus4     E     A (build up)
Out of hiding

CHORUS:
G                 D     D/C#
Try my best to be funny yeah
G                 D     D/C#
You forget for a while
Bm7          Esus4     E
Wrote a song for you honey
G                 
You should laugh so you don't cry
G               
Laugh so you don't cry

REFRAIN:
D        D/C#      Bm7      Asus4
This is it this your song baby
G        D/F#      Asus4      A7
Look outside, the sun is shining
D        D/C#      Bm7      Asus4
Are you there? Can I come in baby?
G        D/F#
Crack a smile
Asus4    A7     Asus4    A7    
You don't have to hide it

CHORUS:
G                  D     D/C#
Well try my best to be funny yeah
G                  D     D/C#
You forget for a while
Bm7          Esus4     E
Wrote a song for you honey
G                    
You should laugh so you don't cry...
G                  
You should laugh so you don't cry
G                        D
Laugh so you don't cry...(Outro)
G                 D
So you don't cry

OUTRO:
e|---------------------------------------------------------------------------------------|
B|-3--2--3--3h5--5/7--7\5--3--3--2--3----------------------------------------------------|
G|--------------------------------------3/4--2--3/4--2--0------------------|
D|----------------------------------------------4/5--4--2--2/4-------------|
A|---------------------------------------------------------------------------------------|
E|---------------------------------------------------------------------------------------|
Добавлено: 22.07.2012
Другие материалы по этой песне:
  • Аккорды и текст

Страница создана 29.03.2012
http://primanota.ru/andy-davis/laugh-so-you-dont-cry-chords.htm
Привет, Гость.
Предлагаем пройти революционный курс по гитаре.
Подарок от PrimaNota.Ru, забирай!