PrimaNota.ru - самый крупный в мире бесплатный архив песенных текстов, аккордов, табулатур и нот


Andy Burrows - Light The Night - аккорды и текст, видео

Регистрация Запомнить меня
Войти через:  Facebook Google Twitter Vk Yandex Mail.ru

Andy Burrows - Light The Night - аккорды и текст, видео

Печатать
Просмотров: 243
Light The Night
Andy Burrows
In case you were wondering, this was the theme to the flying
sequence in the snowman sequal, 'The snowman and the Snowdog'

List of chords;  

       E A D G B e
F7M   [1,3,3,2,1,0]
Em    [0,2,2,0,0,0]
G     [3,2,0,0,0,3]
C     [x,3,2,0,1,0]
Am    [x,0,2,2,1,0]
Cadd#9[x,3,2,0,1,2]
C*    [x,3,2,0,1,3]
C6    [x,3,5,5,5,5]
Bm    [x,2,4,4,3,2]
Em7   [0,2,0,0,3,0]
D     [x,x,0,2,3,2]
Dsus4 [x,x,0,2,3,3]


F7M  
e||------------0--------------:||
B||---0-1----0----0-1---0-----:||
G||-2------2----------2---0-2-:||   X3
D||---------------------------:||
A||---------------------------:||
E||-1------1----------1-----1-:||

Em           G         C    Am 
Ooo      -    ooooh, li - ght
Em           G         C    Am 
Ooo      -    ooooh, li - ght

Em              G            C        G C     Am
All through the quiet of the night sky 
  Em             G
I look out of my window 
                C           G C   
Jet stream is a lonely line 
Am        C  Cadd#9      C*   C6       
Follow it up through the ai - r 

(C6)  Em             C
We go high above the river
Bm          Em     Em Em7 
Up over the world 
C           G                      D
Night lamps flicker on the streets below
(D)  Em      C    Bm
Just like    a    dream 
(Bm)            Em    Em Em7 
Like a shooting star
C                  G
Diving through the dark 
                     Dsus4 D
See how we light the night
(D) 
How we light the night

F7M  
e||------------0--------------:||
B||---0-1----0----0-1---0-----:||
G||-2------2----------2---0-2-:||   X1
D||---------------------------:||
A||---------------------------:||
E||-1------1----------1-----1-:||

Em              G                    C   G C     Am
All through the magic up here in the night sky 
Em             G   
A cold wind on my face the clouds below 
    C            G C   Am
the stars so high 
(Am)        C  Cadd#9      C*     C6
Follow them up through the ai  -  r 

(C6)  Em             C
We go high above the river
Bm          Em     Em Em7 
Up over the world 
C           G                      D
Night lamps flicker on the streets below
(D)  Em      C    Bm
Just like    a    dream 
(Bm)            Em    Em Em7 
Like a shooting star
C                  G
Diving through the dark 
                     Dsus4 D
See how we light the night
(D)              Dsus4 D
How we light the night

(interlude)

      1  2  3  4  5  6  7| 8|1  2  3  4 | 
7/8|: Bm /  /  /  Em /  /|
7/8|: C  /  /  /  D  /  /|
7/8|: Bm /  /  /  Em /  /|
4/4|: C  /  /  / |D  /  /  /|D  /  /  /|

F7M  
e||------------0--------------:||
B||---0-1----0----0-1---0-----:||
G||-2------2----------2---0-2-:||   X2
D||---------------------------:||
A||---------------------------:||
E||-1------1----------1-----1-:||

      Em             C
We go high above the seagulls
Bm              Em     Em Em7 
Way up over the world 
C           G                    D
Night lamps flicker on the boats below
(D)  Em      C    Bm
Just like    a    dream 
(Bm)            Em    Em Em7 
Like a shooting star
C                  G
Diving through the dark 
                     Dsus4 D
See how we light the night
(D)              Dsus4 D
How we light the night

F7M  
e||------------0--------------:||
B||---0-1----0----0-1---0-----:||
G||-2------2----------2---0-2-:||   X3
D||---------------------------:||
A||---------------------------:||
E||-1------1----------1-----1-:||

Thank you for looking at this tab and please rate.
Paul Anders
Добавлено: 04.12.2013
Другие материалы по этой песне:
  • Аккорды и текст

Страница создана 04.12.2013
http://primanota.ru/andy-burrows/light-the-night-chords.htm
Привет, Гость.
Предлагаем пройти революционный курс по гитаре.
Подарок от PrimaNota.Ru, забирай!