PrimaNota.ru - самый крупный в мире бесплатный архив песенных текстов, аккордов, табулатур и нот


Andy Blythe Marten Joustra - The Wrath Of Cortex Warp Room - бас-таба, видео

Регистрация Запомнить меня
Войти через:  Facebook Google Twitter Vk Yandex Mail.ru

Andy Blythe Marten Joustra - The Wrath Of Cortex Warp Room - бас-таба, видео

Печатать
Просмотров: 34
Уроки эстрадного вокала в Санкт-Петербурге
Song: The Wrath of Cortex (Warp Room)
Album: Crash Bandicoot: The Wrath of Cortex
Artists: Andy Blythe & Marten Joustra 
http://www.blythe-joustra.com/

This song is in standard tuning (E, A, D, G)

I loved this tune since I first heard it in Crash Bandicoot: The Wrath of Cortex as a little kid.
The bassline rocks, so have a blast playin' it!!!

G---------------------------------------|
D---------------------------------------|
A-0~~~-12-11-10-9-8-7-6-5-4-3-2-1-0---0-|
E-----------------------------------3---|

G---------------------|
D---------------------|
A----------5h7--------|
E---5h7-8-8-----5h7-8-| x4

G---------------------------------------------|
D---7-7--5-5---------------7-7--55--3-3--11---|
A-------5----35-5-3-5-3-65-----5---3----5----5|
E---------------------------------------------| x2

0:38
G-------------------|
D-------------------|
A-------------------|
E-0~~--0~~--0~~--0~~| Stop playing at 0:45

0:52
G---------------------------------------------|
D---7-7--5-5---------------7-7--55--3-3--11---|
A-------5----35-5-3-5-3-65-----5---3----5----5|
E---------------------------------------------| x4

1:21
G------------------------------|
D---7654-----7654-----7654-----|
A-------8765-----8765-----8765-|
E------------------------------|

G---------------------|
D---------------------|
A----------5h7--------|
E---5h7-8-8-----5h7-8-| x4

G---------------------------------------------|
D---7-7--5-5---------------7-7--55--3-3--11---|
A-------5----35-5-3-5-3-65-----5---3----5----5|
E---------------------------------------------| x2

Tabbed by Max Dietz
Добавлено: 24.12.2015
Другие материалы по этой песне:
  • Аккорды и текст

Страница создана 24.12.2015
http://primanota.ru/andy-blythe-marten-joustra/wrath-of-cortex-warp-room-chords.htm
Привет, Гость.
Предлагаем пройти революционный курс по гитаре.
Подарок от PrimaNota.Ru, забирай!