PrimaNota.ru - самый крупный в мире бесплатный архив песенных текстов, аккордов, табулатур и нот


Andromeda 1969 - Dy Of The Change - таба, видео

Регистрация Запомнить меня
Войти через:  Facebook Google Twitter Vk Yandex Mail.ru

Andromeda 1969 - Dy Of The Change - таба, видео

Печатать
Просмотров: 86
-------------------------------------------------------------------------------
                             Day of the change - Andromeda
-------------------------------------------------------------------------------
Tabbed by:Jonathan Kosyjana
E-mail:jonathankosyjana@gmail.com
For anyone who dosent know about andromeda from 1969 check this out 
http://en.wikipedia.org/wiki/Andromeda_%28English_band%29
It's a superb band,the who album it great and the lead guitarist and singer John Du Cann later went on to 
start atomic rooster.Just figured out a little bit of this song.Hope i can find some people to tab this whole song out! Theres a great outro solo with like 5 guitar tracks soloing in  harmony,some cool stuff,it wish more people knew about these old,unknown legendary bands
Tuning:Standard
Intro
e|---------------------------------------------------------------------------|
B|---------------------------------------------------------------------------|
G|--0h-2-4-6-6/7\6\4\2/6-4/6-4/6-4/6~~~------0-2-4-6-6/7\6-4-22--------------|
D|-------------------------------------------------------------Repeat Once---|
A|--0--0-0-0-0-------0---0-0-0-6-4/6~~~------0-0-0-0-0-----0-00--------------|
E|---------------------------------------------------------------------------|
Pre-Verse
e|--3----Ring Out--------------------5-------Ring out--------------------------|
B|--3--------------------------------5-----------------------------------------|
G|--4--------------------------------6------------------Repeat Once------------|
D|--5--------------------------------7-----------------------------------------|
A|--5--------------------------------7-----------------------------------------|
E|--3--------------------------------5-----------------------------------------|
Verse
e|---------------------------------------------------------------------------|
B|--3-5-6----3-5-6-8--3------------------------------------------------------|
G|--4-6-7----4-6-7-9--4------------------------------------------------------|
D|--5-7-8----5-7-8-10-5------------------------------------------------------|
A|---------------------------------------------------------------------------|
E|---------------------------------------------------------------------------|




************************************

| /   slide up
| \   slide down
| h   hammer-on
| p   pull-off
| ~   vibrato
| +   harmonic
| x   Mute note
| b   Bend
| pb  Pre-bend
| br  Bend release
| pbr Pre-bend release
| brb Bend release bend

************************************
Добавлено: 14.11.2015
Другие материалы по этой песне:
  • Аккорды и текст

Страница создана 14.11.2015
http://primanota.ru/andromeda-1969/dy-of-change-chords.htm
Привет, Гость.
Предлагаем пройти революционный курс по гитаре.
Подарок от PrimaNota.Ru, забирай!