PrimaNota.ru - самый крупный в мире бесплатный архив песенных текстов, аккордов, табулатур и нот


Andrius Mamontovas - Jureivio Daina - аккорды и текст, видео

Регистрация Запомнить меня
Войти через:  Facebook Google Twitter Vk Yandex Mail.ru

Andrius Mamontovas - Jureivio Daina - аккорды и текст, видео

Печатать
Просмотров: 121
Jureivio Daina
Andrius Mamontovas

         E          Am           E           
1|-------------------------------------------------------------
2|---0-0---0-0---1-1---1-1---0-0---0-0-------------------
3|---1-1---1-1---2-2---2-2---1-1---1-1-------------------
4|---2-2---2-2---2-2---2-2---2-2---2-2-------------------
5|-2-----2------0-----0------2-----2-------0-2-3-0--
6|-------------------------------------------------------------

As toks vienissas, jaunas jureivis
Mindau svetimo uosto gatves 

          E          Am           E           
1|-------------------------------------------------------------
2|---0-0---0-0---1-1---1-1---0-0---0-0-------------------
3|---1-1---1-1---2-2---2-2---1-1---1-1-------------------
4|---2-2---2-2---2-2---2-2---2-2---2-2-------------------
5|-2-----2------0-----0------2-----2-------0-2-3-0--
6|-------------------------------------------------------------

Ieskau knaipes, kur gauciau isgerti 
Nes niekas niekas nemylejo manes| x2

As rukau tik tai stipria taboka
Nesvarbu man prie ko tai prives
Mano laime man sukelia juoka
Nes niekad nieks nemylejo manes

Stai tuos duris kur ipila vyno
Kur dainuoja ir dauzo taures
As taip pat su visais jas dauzisiu
Nes niekas niekas nemylejo manes

Ieinu tas duris atidares
Ir nuzvelges visas merginas
Atsisedu I kampa prie stalo
Nes niekas niekas nemylejo manes

Kai viena tu merginu prieina
Pajuntu jos aistringas rankas
Dar isipilu vyno i taure
Nes niekas niekas nemylejo manes

Ji paklausia" ko ieskai cia broli
Negi tau taip negaila saves"
Atsakau jai kad "nieko nenoriu"
Nes niekas niekas nemylejo manes

Ji pasiulo iseit pasivaiksciot
As zinau kur mane ji nuves
Sutinku , nors gal to ir nereikia
Nes niekas niekas nemylejo manes

Taip jau buvo gal tukstanti kartu
Ji man taria" as nuoriu taves"
As jai pinigus duodu is anksto
Nes niekas niekas nemylejo manes

Atsibudes pro viesbucio langa
Pamatau savo laivo bures
Iseinu neistares nei zodzio
Nes niekas niekas nemylejo manes

As toks vienisas jaunas jureivis
Mindau svetimo uosto gatves
Nezinau,ar kada cia sugrisiu 
Nes niekas niekas nemylejo manes
 
P.S. Последную строчку всегда игтрать 2 раза
Добавлено: 11.02.2014
Вам также может быть интересно:
Другие материалы по этой песне:
  • Аккорды и текст

Страница создана 11.02.2014
http://primanota.ru/andrius-mamontovas/jureivio-daina-chords.htm
Привет, Гость.
Предлагаем пройти революционный курс по гитаре.
Подарок от PrimaNota.Ru, забирай!