PrimaNota.ru - самый крупный в мире бесплатный архив песенных текстов, аккордов, табулатур и нот


Эндрю Йорк - Waiting For Dawn - таба, видео

Регистрация Запомнить меня
Войти через:  Facebook Google Twitter Vk Yandex Mail.ru

Эндрю Йорк - Waiting For Dawn - таба, видео

Печатать
Просмотров: 201
Авторы музыки: Andrew York

Andrew York
Waiting For Dawn

by: tiki

Tuning : EADGBe (Normal Tuning)

Part 1:
-------------------------------------------------------------------------------|
------0------------0h1p0-----------------------------------------0-------------|
-0-2------0-----0--0-------2---0--2--------2p0h2-------------0-2-----0-----0---|
--------2-----2----2------------------0------------0h2-0-----------2-----2-----|
------3-----3------3---------3------2---22-------2---------2-----3-----3-------|
-------------------------------------------------------------------------------|


------------------------------------------0--2-3p2p0---------------------------|
--0h1p0-----------------3-------3------3-----1--------3-3-------3-1--0---------|
--0------2---0-2------2-------2--------------0-----------------------0--2-0-2--|
--2-----------------0------------------------2---------------0-------2---------|
--3--------3------2--------2------2-2--------0-------------2---------3---------|
-------------------------------------------------------------------------------|


---------0--2-3p2p0--------------0---------------------0---2-3p2p0-------------|
-------3----1--------3-3-------3------------0--------3-----1--------3-3--------|
------------0-----------------------------0----------------0-------------------|
----0-------2----------------0---------2------4------------2---------------0---|
--2---------0--------------2---------3---------------------0-------------2-----|
-------------------------------------------------------------------------------|


---------------------------------0-----------0---------0----------------0-----|
-3-1--0---------------0--1----------1---3-------3--------3------------3---3---|
------0--2-0-2------2----0--0-------2---2--0----2--------4----------0---------|
------2-----------0------2----2-----3---4-----------0---------0-2-4-----------|
------3---------2--------1----------0---3---------2---------3-----------------|
------------------------------------------------------------------------------|


-------|-----------------------------------------------------------------------|
-------|-----------------------------------------------------------------------|
-0----*|-----------------------------------------------------------------------|
---4--*|-----------------------------------------------------------------------|
-------|-----------------------------------------------------------------------|
-------|-----------------------------------------------------------------------|

Part 2:

--0----------------0--------------------3------3----3----3---------3-5-7-3----|
----3---------3------3---------3----1---0---1--0--1-0--1-0-------1------------|
------0-----0----------0-----0------2-------2-----2----2---------2------------|
---------4----------------4---------------------------------------------------|
---------2----------------2-------------0--------0------------0---------------|
---------0------0---------0------0--------------------------------------------|


--2-----------2----0----0-----------------0-----0--2-3------------3p2----0-----|
--3-------------3--0------3-1-0---1--1-3-----3---------------3---------3-------|
--0---------0---------------------0----------0-------------0---0---------------|
--2-------2-----------------------2--------------------------------------------|
--2-----2-------------------------0----------2-----------3-----------------3---|
--0---0--------------0---------------------------------------------------------|


------0----0-------0--2/3\2--0-------------0-----0----------------------------|
----3----3----------------------3-------3-----3----------0-1---3--1-0--0------|
------0----0-----0----2/4\2--0--4----------0-----0-----0---2---4--2-0--5------|
----4----4------------------------------4-----4------------------------5------|
-2--2-------------------------------2---2---------------------------------2---|
--------------0--------------------------------------0------------------------|


-----0-----0-------0-2/3\2--0-----------0-----0-------0---------0---------|---|
--3-----3----------------------3-----3-----4------------3---------3-------|---|
-----0-----0-----0---2/4\2--0--4--------0-----0-----------0---------0----*|---|
--4-----4----------------------------4-----3----------------4---------4--*|---|
--2------------------------------2---2-------------3----------------------|---|
---------------0----------------------------------------------------------|---|

Part 3:

-----0---0-------------19^---15--------12^--10-------0----0-----------19^-----|
--3----3-----------19^-------17----12^------12----3----3----------19^---------|
-----0---0-------------------------------------------0----0-------------------|
--4----4------------------------------------------4----4----------------------|
------------------------------------------------------------------------------|
-------------12^---------------------------------------------12^--------------|


--15-------12^-10------0---0-----------19^-15-------12^--10-----0---0-----------|
--17---12^-----12----3---3----------19^----17---12^------12---3---3-------------|
-----------------------0---0------------------------------------0---0-----------|
---------------------4---4-----------------------------------4---4--------------|
--------------------------------------------------------------------------------|
------------------------------12^-----------------------------------------------|


-----0---------12^-------------------------------------------------------------|
-------3---------------------7-------------------------------------------------|
---------0----------7^---12^---------------------------------------------------|
-----------4-------------------------------------------------------------------|
--3----------------------------------------------------------------------------|
-------------------------------------------------------------------------------|

gud luck
Добавлено: 18.03.2012
Другие материалы по этой песне:

Страница создана 18.03.2012
http://primanota.ru/andrew-york/waiting-for-dawn-chords.htm
Привет, Гость.
Предлагаем пройти революционный курс по гитаре.
Подарок от PrimaNota.Ru, забирай!