PrimaNota.ru - самый крупный в мире бесплатный архив песенных текстов, аккордов, табулатур и нот


Эндрю Йорк - Muir Woods - таба, видео

Регистрация Запомнить меня
Войти через:  Facebook Google Twitter Vk Yandex Mail.ru

Эндрю Йорк - Muir Woods - таба, видео

Печатать
Просмотров: 246
Уроки эстрадного вокала в Санкт-Петербурге
Авторы музыки: Andrew York

Author/Artist: Andrew York
Title: Muir Woods
Transcribed by: Michael Neumann

2nd version : 20 Apr 2002

This is a nice slow and impressive song by Andrew York.
It has some tricky parts but it's easy to learn. Have fun :-)

3rd version : 15 Nov 2002

Corrected some mistakes - hope Michael and everybody enjoys it!
Luciano Dyballa

Tuning : Drop D (DADGBe)

|--------------------2--------0------2----0--3---2--0------0-------------------|
|-----------2--3--5---------5--------3------------------3----------------------|
|*--2--4------------------4----------0----2--4---2--0------0-------------------|
|*--4----2--0------------------------x------------------4----------------------|
|---5-------------------4-------4----2---------3--------2----------------------|
|---0--------------------------------------------------------2-----------------|

--0---------0--------0-------0-----------------------------2-------0-----------|
-----4--------4--------4-------4------------------2--3--5--------5-------------|
-------4--------4--------4-------4------2----4-----------------4---------------|
---------4--------4--------4-------4----4------2--0----------------------------|
--4-------------------------------------5--------------------4--------4--------|
----------------------------------------0--------------------------------------|

--7--0----------------2------------2---------2---|---------0-------------------|
--5--0--0---0---1--3--3----0--1-3--3-------------|----------------4------------|
--------2---0---------0----0-------0---------2--*|------------4-6-----6-4------|
------------2--------------2-----------------0--*|------------------4----------|
------------3-----------3--3----------3----------|---------0-------------------|
-------------------------------------------------|-----------------------------|

--0-----------------2----------------4--------2--------------------0-----------|
----------4-------------2--4--5--------0---------2--4---5----------------4-----|
----4--6------6-4---2-------------------------2----------------------4-6-------|
------------4-----------------6-------------------------6----------------------|
--0-----------------4------------4------------4------------4---0---0-----------|
-------------------------------------------------------------------------------|

-----------------------9-------12---------------------------7-9------12--------|
---------------4-5-7-9---12*------10----9----12------7-9----------------10-----|
----6-4---4--6-----------------------9--------------------------7*---------9---|
-4-----------------------------------------------7*------7*--------------------|
-------------0-----------------------------------------------------------------|
-------------------------------0-------------------------------------0---------|

------------------7-9-----12--------------------------0-----0---------0--------|
--9--12----7-9----------------10----9--12-----------9---------------0-----7----|
----------------------7*---------9---------------11-------7---6---2------------|
--------7*-----7*----------------------------7*--------------------------------|
-------------------------------------------------------------------------------|
--------------------------0---------------------------------------0------------|

------------------------------------1-------------1----------------1----------|
--------12*---------0----0h1---3------1--0hh1---3------1--0h1--3-----1--0h1---|
--------------7p6---1----0-------2-------0-----------2----0------2------0-----|
----7*--------------2----x--------------------------------x-------------------|
-------------------------3--------------------------------3-------------------|
-------------------------3--------------------------------3-------------------|

----1------------------2-----------2--------------------2-----------2-----------|
--3------1--0h1---3------1--0h1--3------1-----0h1---3-----1--0h1--3------0-1=---|
-------2----0-------2-------0---------2-------0-------2------0--------2---------|
------------2---------------------------------2---------------------------------|
------------3---------------------------------3---------------------------------|
--------------------------------------------------------------------------------|

                (c2)
-----------0------------------------0-1----------------------------------0------|
======------3=========-1p0h1======-----3-------------------1======--------3==---|
--2--2----------2h4--2-----------2----------------2-----2------2--2-------------|
--3--3----------5----5-----------3--------------5-----5--------3--3-------------|
--0----0--------2----2---------0-------------2------2----------0----0-----------|
--------------------------------------------------------------------------------|

-----------------------0-1-------------------------------3---------------------|
======----1p0h1======------3---------------3--3------------6-5----2-0----------|
-2h4-2--------------2-------------2------------3----3------------------2-------|
-5---5--------------3-----------5------5--------------3------------------------|
-2-----2----------0-----------2------2---------3-----------------0--------0----|
-------------------------------------------------------------------------------|

--0----------1--------------------------0--------------0---3---------5-0-------|
-----5---------1--3-----2-----------------------0----------------3---3---------|
-------3------------------2-------------------2---0-2----------3---3-----------|
---------3-------------------------7*------------------------------------------|
-----3---------------0----------7*-------------------------0--------------2----|
----------------------------------------3--------------------------------------|

-------------0---3------------5--0------0----------0------0-----0--------------|
-0--2------------------3------3-------------4--------4-----4------4------------|
------0-------------3-------------------------4--------4-----4------4----------|
---------4-----------------3--------------------4--------4-----4------4--------|
-----------------3----------------------4--------------------------------------|
-------------------------------------------------------------------------------|

--------------------2--------0------2----0---3---2--0------0-------------------|
-----------2--3--5---------5--------3-------------------3----------------------|
---2--4------------------4----------0----2---4---2--0------0-------------------|
---4----2--0------------------------x-------------------4----------------------|
---5-------------------4-------4----2----------3--------2----------------------|
---0---------------------------------------------------------2-----------------|

--0---------0--------0-------0-----------------------------2-------0-----------|
-----4--------4--------4-------4------------------2--3--5--------5-------------|
-------4--------4--------4-------4------2----4-----------------4---------------|
---------4--------4--------4-------4----4------2--0----------------------------|
--4-------------------------------------5--------------------4--------4--------|
----------------------------------------0--------------------------------------|

--7--0----------------2------------2---------2-------------0-------------------|
--5--0--0---0---1--3--3----0--1-3--3------------------------------4------------|
--------2---0---------0----0-------0---------2----------------4-6-----6-4------|
------------2--------------2-----------------0----------------------4----------|
------------3-----------3--3----------3--------------------0-------------------|
-------------------------------------------------------------------------------|

--0-----------------2----------------4--------2--------------------0-----------|
----------4-------------2--4--5--------0---------2--4---5----------------4-----|
----4--6------6-4---2-------------------------2----------------------4-6-------|
------------4-----------------6-------------------------6----------------------|
--0-----------------4------------4------------4------------4---0---0-----------|
-------------------------------------------------------------------------------|

-----------------------9-------12---------------------------7-9------12--------|
---------------4-5-7-9---12*------10----9----12------7-9----------------10-----|
----6-4---4--6-----------------------9--------------------------7*---------9---|
-4-----------------------------------------------7*------7*--------------------|
-------------0-----------------------------------------------------------------|
-------------------------------0-------------------------------------0---------|

------------------7-9-----12--------------------------0-----0---------0--------|
--9--12----7-9----------------10----9--12-----------9---------------0-----7----|
----------------------7*---------9---------------11-------7---6---2------------|
--------7*-----7*----------------------------7*--------------------------------|
-------------------------------------------------------------------------------|
--------------------------0---------------------------------------0------------|

------------------------------------1-------------1----------------1----------|
--------12*---------0----0h1---3------1--0hh1---3------1--0h1--3-----1--0h1---|
--------------7p6---1----0-------2-------0-----------2----0------2------0-----|
----7*--------------2----x--------------------------------x-------------------|
-------------------------3--------------------------------3-------------------|
-------------------------3--------------------------------3-------------------|

----1------------------2-----------2--------------------2-----------2-----------|
--3------1--0h1---3------1--0h1--3------1-----0h1---3-----1--0h1--3------0-1=---|
-------2----0-------2-------0---------2-------0-------2------0--------2---------|
------------2---------------------------------2---------------------------------|
------------3---------------------------------3---------------------------------|
--------------------------------------------------------------------------------|


-----------0------------------------0-1----------------------------------0------|
======------3=========-1p0h1======-----3-------------------1======--------3==---|
--2--2----------2h4--2-----------2----------------2-----2------2--2-------------|
--3--3----------5----5-----------3--------------5-----5--------3--3-------------|
--0----0--------2----2---------0-------------2------2----------0----0-----------|
--------------------------------------------------------------------------------|


-----------------------0-1-------------------------------3---------------------|
======----1p0h1======------3---------------3--3------------6-5----2-0----------|
-2h4-2--------------2-------------2------------3----3------------------2-------|
-5---5--------------3-----------5------5--------------3------------------------|
-2-----2----------0-----------2------2---------3-----------------0--------0----|
-------------------------------------------------------------------------------|

--0----------1--------------------------0--------------0---3---------5-0-------|
-----5---------1--3-----2-----------------------0----------------3---3---------|
-------3------------------2-------------------2---0-2----------3---3-----------|
---------3-------------------------7*------------------------------------------|
-----3---------------0----------7*-------------------------0--------------2----|
----------------------------------------3--------------------------------------|

-------------0---3------------5--0------0----------0-------0------0------------|
-0--2------------------3------3-------------4--------4------4-------4----------|
------0-------------3-------------------------4--------4------4------(4)-------|
---------4-----------------3--------------------4--------4-----4-------(4)-----|
-----------------3----------------------4--------------------------------------|
-------------------------------------------------------------------------------|

--------------------2--------0------2----0---3---2--0------0-------------------|
-----------2--3--5---------5--------3-------------------3----------------------|
---2--4------------------4----------0----2---4---2--0------0-------------------|
---4----2--0------------------------x-------------------4----------------------|
---5-------------------4-------4----2----------3--------2----------------------|
---0---------------------------------------------------------2-----------------|

--0---------0--------0-------0-----------------------------2-------0-----------|
-----4--------4--------4-------4------------------2--3--5--------5-------------|
-------4-4----4-4-4----4-4-4---4-4-4----2----4-----------------4---------------|
---------4--------4--------4-------4----4------2--0----------------------------|
--4-------------------------------------5--------------------4--------4--------|
----------------------------------------0--------------------------------------|

--7--0----------------2------------2---------2---------------------------------|
--5--0--0---0---1--3--3----0--1-3--3-------------------------------------------|
--------2---0---------0----0-------0---------2---------------------------------|
------------2--------------2-----------------0---------------------------------|
------------3-----------3--3----------3----------------------------------------|
-------------------------------------------------------------------------------|

* in the tab means harmonics.
Добавлено: 09.07.2012
Другие материалы по этой песне:
  • Аккорды и текст

Страница создана 09.07.2012
http://primanota.ru/andrew-york/muir-woods-chords.htm
Привет, Гость.
Предлагаем пройти революционный курс по гитаре.
Подарок от PrimaNota.Ru, забирай!