PrimaNota.ru - самый крупный в мире бесплатный архив песенных текстов, аккордов, табулатур и нот


Эндрю Йорк - Freelin - таба, видео

Регистрация Запомнить меня
Войти через:  Facebook Google Twitter Vk Yandex Mail.ru

Эндрю Йорк - Freelin - таба, видео

Печатать
Просмотров: 314
Уроки эстрадного вокала в Санкт-Петербурге
Авторы музыки: Andrew York

Freelin' - Andrew York
from "Into Dark" album

tabbed by Scott Gingerich - last revised July 19th 2004 (2nd copy)

Personal interpretation for private study only 

Let chords ring as much as possible as a general rule: Swing-152-with Cool feel
in places. Listen to the original recording on "Into Dark" for best results.

 measures:|               |            |           |            |
E-----5------------------------5------5-5-6p5-8---------5--------10------------|
B-5h7---3--5h6p5--------8--5h7---3-3-8---------6p5--5h7---3---------11-8-----6-|
G-5-----3--------7--5------5-----3-3--------------7-5-----3--------------9-7---|
D-5-----3-------------7----5-----3-3----------------5-----3--0-----------------|
A-5-----3------------------5-----3-3----------------5-----3----3---------------|
E-----------------------------------------------------------3------------------|

         |            |                 |                 |
|-------------5-0----------------------------5-5-----1p0---3-3---|
|-5h6p5---5h7---3------0-----0----0------3-3-----3-3-----1-----1-|
|------7--5-----3------------------------3-3-----3-3-----0-----0-|
|---------5----------0-3-2-2-3-0--3------3-3-----3-3-----2-----2-|
|---------5-----3--3------------3-3-2-1--0-0-----0-1-----0-----0-|
|----------------------------------------------------------------|

       |             |              |      |                          |   (hold)
|-3-3-----3-3---3-3------3-3---3-----0-3-----------------------------1-0-3-8---|
|-----1-------1------------------6-3-0----0------------------1-----3---0---6---|
|-----1-------1-----3--------3-------0----4------------0---0---2h3-----0---7---|
|-----1-------1---------------------------3------0---0---3-----------------5---|
|-------------------5--------5-------3---------0---3-------------------3-------|
|-------3-----3-------3------3------------3--3---------------------------------|

  (R.H.fret) | rest |      (hold crd)R.H.harms|                       |
|-----------------------0--7-----------------------------------7-------2-3-----|
|---------------------8----7-------------------------------------10-8--2---3---|
|----------------------------------------------------------------------3-4---4-|
|---------------------9------------------------------------------------0-----4-|
|---------------------7----6-------------------------------------------------4-|
|-0-s-1-s-3--------------------<19>-<19><19>--<19>-<19><19>--------------------|

    |R.H. harms.          |                          |          |       |
|------------------------0--1---5-5-------------5-3-1--0-3---------0---7-7-5---|
|----------------------3------3-0-0-0-1-1-0---1--------1---1--3--4---5---5-5-8-|
|-4-------------------------2---0-0---------0----------0---0-----4---4---5-5---|
|-4---------------------------------0-3-3-0---3------------3-----4---4---6-5---|
|-4-------------------------3---2-2--------------------1---0-------------------|
|-----<19>-<19><19>--------------------------------------------------3---------|

 |    (slide chord down |                      |                   |(damp A)
|-----5-7----------0-3-5-0-7-8-10-----------12---14----10--12----15--14--------|
|-5h7---5--------3--------------8-----------11---13-----9--11----14--13--------|
|-5-----4------4----------------9-----------10---12-----8--10----14--12--------|
|-5-----5----2------------------8-------------------------------------0--------|
|-5-------------------------------0-0-0-0-0----0--0--0--0---0--0--0------------|
|----------3-------------------------------------------------------------------|

                      |(hold chord) R.H.harm.|                |            
|-8------0----------------3-3-3---------------------------------5-3---0-1------|
|---8------------------1----------------------------------------3-----1---1----|
|-----11---------------0-------------------------2-2-2-2--------3-----0--------|
|----------10-9-7-0----0-------<19>--<19><19>----------------------------------|
|-------------------0------------------------------------0-0-0---0--0----------|
|----------------------2-------------------------------------------------------|

 |R.H  (L.H harm/a-p-a-p pattern) |             |                  |  (a-p-a-p)
|-------------------------------------------------3--1---------3--5------------|
|-------------------------------------------------1--------3-5----5------------|
|--------------------------10-<12>-0-0-0-0--------2--------3-5----3------------|
|-<12>-------------10-<12>-----------------------------------------------------|
|----------10-<12>-------------------------------------2-3-3--------3------13--|
|------<12>--------------------------------3-3-3--3--------------------<15>----|

                       |                                |
|------------------------------8-----10--8----5---6s8-----6--5-----3--5--3-----|
|------------------------10-11--------8-------6-----------8--8-----5-----------|
|--------------14-<15>----------------8-------5-----------8--8-----3-----------|
|------13-<15>-------------------0----0----0----0-----0---0--0--0--------------|
|-<15>-------------------------------------------------------------4-------0---|
|------------------------------------------------------------------------------|

 |                |            |                 |            
|-3--2--5------------5--6--8----10------8----11---10------6----|
|-5--3--7------------7--8--10---11------10---13---11------8----|
|--------------<7>-----------------0-0--0--0-0--0-0--0-0--0--0-|
|-0--------0-0-------------------------------------------------|
|--------------------------------------------------------------|
|--------------------------------------------------------------|

   |                 |
|----8------5----6----3-----------|
|----4------6----8----4-----------|
|-0--0--0-0-0-0----0--0-0-3p0-----|
|-----------------------------0---|
|-------------------------------3-|
|---------------------------------|

          |                         |                      |
|------------------------------------------------------------------3------5--5-|
|---4-------------3----------1-----4------1-3-1----3h5-3h5-------4---4----6--6-|
|-3-----2-------3---3------2-----5-----------------3---3-------3-------3--0--0-|
|-----0-------0-------0-----------------3-------3--3---3-----0-----------------|
|------------------------------0------1------------3---3------------------6--6-|
|-----------3-----------2------------------------------------------------------|

                         |                |                    |          |
|---5-6-6p5-----6-6p5-----------------------3-3p2-----3-3p2--------------------|
|-6---6-----6---------6---------------6-6---3-----3---------3------------------|
|-----0-------0---------0----7---7--5-------0-------0---------0------0---------|
|----------------------------8---8--7-----------------------------------4----0-|
|-----6--------------------6---6------------3----------------------7----5------|
|----------------------------------------------------------------8---------6---|

                     |                         |
|-------0-----------0---------------------------|
|--------------------------0------7-----0-----7-|
|-0---5-------0---5------0------7-----0-----7---|
|---7-------0---7------------10----------10-----|
|-----------------------------------------------|
|---------6------------8------------8-----------|

               |
---------------------------------|
---------------------------------|
<12>------------<12>-------------|
<12>---------0--<12>----------0--|
<12>---------------<7>-----------|
-----6---6-------------8--8------|

                  L.H.4  R.H.
 |              |                |                          |
|------------------<12>----------------------0---------------<12>--------------|
|------------------------<19>----------------------0-----7---<12>--------------|
|-<12>---------------------------------0---5-----0-----7-----<12>--------0-----|
|-<12>--------0----------------0-----0---7----------10---------------------0---|
|-<12>-----------------------------------------------------------------8-------|
|-----6--6---------8--------------6------------8-----------------6--6----------|

 |                    |                       |                      |
|---------8-8----8------------10-10-----10--------------8-8----8---------------|
|------------------8-----------------------8---------------------8----------5-6|
|----------------------<7>-----------------------------------------<7>---------|
|-<12>---------------0-<7>-------------------0--<12>---------------<7>---------|
|-<12>-----------------<7>----------------------<12>---------------<7>----8----|
|-<12>-6----6--------------8------8-------------<12>-6----6--------------------|

        |                      |               |                   |
|----5----6--6p5------6-6p5----------------------------------------------------|
|-8-------6------6----------6--------------6-6---8--8p7-----8p7----------------|
|---------0--------0----------0---7---7--5-------7------7-------7---------0----|
|---------------------------------8---8--7----------------5-------5------------|
|---------6---------------------6---6----------------------------------7-----9-|
|------------------------------------------------8-------------------8------10-|
           
          |                |             |                    |
|------------------------------------------------------------------------------|
|------------------------------------7----8--3--------------------------6------|
|-------------0-----0----------8----------7--3----4---4----------8------5---5--|
|-<12>--------8-----8--0-------8-----7----7--3----4-3-4----------8---0--4---4--|
|-<12>---8-10---8-6--------------6-5---------0-------------------8-------------|
|-------------------------7--8---------8--6-----3-----3--6--6--8---9------4----|

   |                |               |             |                |
|--------5--3--3------------------------1-3-----5----6--8--10------------------|
|--------3--3--3-6-3--4-6-4--3--1--3--4---5-----4-----------7--------------3---|
|--------3--3--3------3------2--2--2------3-----5-----------8------------3---3-|
|-----4-----3---------3------1--1--3------3-----------------7----------0-------|
|---------------------3------------1------------0--------------0--0------------|
|-4-3------------------------1---------------4-----------------------3---------|

                |                           |                    |
|------------------------------------------5--6-6p5-----6-6p5------------------|
|-------1------4------1-3-1----3h5--3h5--6----6-----6---------6------3---3--1--|
|-----2------5-----------------3----3---------0-------0---------0----3---3--2--|
|-0-----------------3-------3--3----3------------------------------1---1-------|
|---------0-------1------------3----3---------6--------------------------------|
|---2--------------------------------------------------------------------------|

      |                  |                         |                          |
|-1-1---3-3p2-----3p2----------------0----------------------8--8----8----------|
|-------3-----3-------3-------------------0-----7---------------------8--------|
|-------0-------0-------0-----0---5-----0-----7-----<12>-------------------<7>-|
|---------------------------0---7----------10-------<12>----------------0--<7>-|
|-------3-------------------------------------------<12>-------------------<7>-|
|-------------------------6-----------8------------------6-----6---------------|

 |        |     |         |           |         |         |          |
|-----------3-----2-----0-------3-------2-----0------3------2------0-----3-----|
|-----------0-----0--3--3-------5-------2--3--1------1------2---3--2---1-------|
|-----------5-----2--0--0-------5-------2--4--0------0------3---4--4---0-------|
|-----------2-----0--4---------------------0--0-----------------6--------------|
|----3---------------2--3----0-----0----2--3--------------------0--0---0---2---|
|-------------------------------------------------2--2--2---4------------------|

 |            |         |           R.H.harms.   |
|--2--------0----------------0--7------------------------------------7--5--3---|
|--0-----3--0-------------8-----7----------------------------------------------|
|--0--5--2--0------------------------------------------------------------------|
|--------0--2---4s5---7---9----------------------------------------------------|
|--3----------------------7-----6----------------------------------------------|
|----------------------------------<19>-<19>-<19>--<19>--<19><19>--------------|

 |              | R.H.                     |           |                    |
|--2--5-------------------------------0---1----5-----------------5--3--1---0---|
|--2----3---------------------------3-------3--3---0--1-1--0---1-----------1---|
|--3--4----4--4---------------------------2----0-------------0-------------0---|
|----------4--4------------------------------------0--3-3--0---3---------------|
|----------4--4---------------------------3----2---------------------------1---|
|----------------<19>-<19>-<19>------------------------------------------------|

         |         |         |                   |
|-3----------0---7---7--5----------5--6-----------0-3--5-0-6-8-10-----------12-|
|---1--3--4----5-----5--5--8---5h7----5---------3---------------8-----------12-|
|---0-----4----4-----5--5------5------7-------3-----------------9-----------10-|
|---3-----4----3-----6--5------5------5-----2-------------------8--------------|
|---0-----0--------------------5----------------------------------0-0-0-0-0----|
|--------------3--------------------------3------------------------------------|

   |                       |                            |
|------14----10--12-----15---14---10------12--------15----14-----10----12------|
|------13-----9--12-----14---13----9------12--------14----13------9----12------|
|------12-----8--10-----14---12----8------10--------14----12------8----10------|
|------------------------------------------------------------------------------|
|-0----0--0---0---0--0---0----0----0--0-------0--0-----0---0--0-----0---0--0---|
|------------------------------------------------------------------------------|

       |                           |                            |
|-15------14---8-------0-----------------5-----------------------------5-------|
|-14------13-----8-------------------5h7----3----5h6p5-------8----5h7-----3--8-|
|-14------12-------11----------------5------3--7-------7-5--------5-------3----|
|---------0--------------10p9p7p0----5------3--------------7------5-------3----|
|----0----------------------------0--5------3---------------------5-------3----|
|------------------------------------------------------------------------------|

    |                |                  |                       |
|-5--5-6p5--8---------------5-------------10---------------------------5--0----|
|-------------6p5------5h7----3--------------11-8-----6--5h6p5----5h7-----3----|
|-----------------7----5------3-------------------9-7----------7--5-------3----|
|----------------------5------3----0--3---------------------------5------------|
|----------------------5------3-----------------------------------5-------3----|
|--------------------------------3---------------------------------------------|

            |                             |              |
|-----------------------------5-5----1p0----3-3----3-3--------3-3----3-3-------|
|-------0-----------0------3-------3-----1-------1------1----------1---------6-|
|--------------------------3-------3-----0-------0------1----------1-----3-----|
|----0--3--2-2--0---3------3-------3-----2-------2------1----------1-----------|
|-3---------------3-3--2-1-0-------0-----0-------0-----------------------5-----|
|-----------------------------------------------------------3------3-------3---|

           |          |                   |             |
|-----3------0--3------------------------1--0--3-------------------------------|
|-6-----6-3--0----1--------------1-----3----0----1--------3-3-3---3h5-3h5------|
|---3--------0----3------------0---2h3------0----3--0-----3-3-3---3---3--------|
|-----------------3------0---0-------------------3--0-----3-3-3---3---3--------|
|---5--------3---------0---3----------------3---------0---3-3-3-0-3---3---0----|
|---3-------------3--3---------------------------3-----------------------------|

 |                  |                       |                |           
|------5----------15--17-17-15-15-12s13-12---------5---------------------0-----|
|-5h7----3------------------------------------5h7----3-------------------------|
|-5------3--0--12-----14-14-12-12--9s10--9----5------3-------------0---5-----0-|
|-5------3------------------------------------5------3--3-2-0----0---7---------|
|-5------3---------------------------------0--5------3-------------------------|
|--------------------------------------------------------------6-----------8---|

           |             R.H.   |
|------------2-----------<15>-0--------------3---3------3-|
|-0-------7----1------3--<15>-----6--6----6--3h5-3h5--5---|
|-------7--------0----3--<15>-----7--7--7----3---3--------|
|----10------------0--3-----------8--8--------------------|
|---------------------3-----------5--5-------3---3--------|
|---------------------------------------------------------|

 |  ^    ^  ^ v   ^    ^  ^ v |  ^   ^                 |  R.H. |  R.H. R.H.       
|---5----5--5-5---5----5--5-5----5---5------5--------------h2-----h2--------0-||
|-5h7--5h7--7-7-5h7--5h7--7-7--5h7-5h7----8---8---------1-------------------1-||
|---5----5--5-5---5----5--5-5----5---5--5-------5-------0-<12>---<12>---------||
|---5----5--5-5---5----5--5-5----5---5------------5-----0-------------<19>----||
|---5----5--5-5---5----5--5-5----5---5--------------5-0-----------------------||
|-------------------------------------------------------2---------------------||
 strum->                             ->|                (hold crd.hammer Gb 
                                                         with 3,damp A) FIN
Добавлено: 20.07.2012
Другие материалы по этой песне:
  • Аккорды и текст

Страница создана 20.07.2012
http://primanota.ru/andrew-york/freelin-chords.htm
Привет, Гость.
Предлагаем пройти революционный курс по гитаре.
Подарок от PrimaNota.Ru, забирай!