PrimaNota.ru - самый крупный в мире бесплатный архив песенных текстов, аккордов, табулатур и нот


Эндрю Йорк - 3 Dances - Bagatelle - таба, видео

Регистрация Запомнить меня
Войти через:  Facebook Google Twitter Vk Yandex Mail.ru

Эндрю Йорк - 3 Dances - Bagatelle - таба, видео

Печатать
Просмотров: 272
Title : Bagatelle
Author : Andrew York
Transcribed by : Michael Neumann

This is really a fantastic piece by Andrew. Have fun.

* means Artificial Harmonics

Drop-D Tuning  (D A D G B E)

---5-4---5-4----5-4-5-7---0---5-4---5-4----5-4-5-7---0-0--2-4-5--4--2-0----0--|
-----5-5---5-5----5-----5-------5-5---5-5----5-----5------3------5-------3----|
------------------------------------------------------------------------------|
------------------------------------------------------------------------------|
------------------------------------------------------------------------------|
------------------------------------------------------------------------------|

                      play this 2 times

--2---0---|-5---5p4----5--5p4----5--5p4---5-7--0--|--0---2-4-5--4-2-0----0-2---|
----3-----|-----5---5-----5---5-----5----------0--|------3------5------3-------|
----------|---------------------------------------|--------------------2-------|
--------2-|-----2---------2---------2------------2|------0------2------0-------|
----------|---------------------------------------|----------------------------|
----------|---------------------------------------|----------------------------|


----0------0----------2-0---------------------------2----2---4-5-4---2--------|
-3--0---------2--4-5--4---4--2-4-5--0---0--2--4-5---4--5-----5---------4------|
--------------2-------4------2------1------2--------4--------6-----------4----|
----2---------2--------------2-------------2----------------------------------|
--------------0-------0------0--------0----0--------0--------0-------0--------|
-------2----------------------------------------------------------------------|


-----------2--0------------0---------------2---2--4-5-4--2---------2-3-2---0---|
---2--4-5--4----4--2-0-2-4----0--0-2-4-5---4-5----5--------4-------3-----3-2---|
---2-------4------------------1----2-------4------6----------4-----4-----------|
---2-------------------------------2-------------------------------0-----------|
---0-------0-------0------------0--0-------0------0------0---------------------|
-------------------------------------------------------------------------------|


----------0------------5--2-3-2---0----0-----------------------0---------------|
----2--3----3-0--2--------3-----3-2-2-3---3-0--2--------0-1-3--3--3-1--0---0---|
-------4---------2--------4-----------4--------2-----2--0------2---------2-----|
--0----0------------0-----0--------0--0-----------0-----2------0---------------|
--------------------------------------------------------3--------------3-------|
-------------------------------------------------------------------------------|


-----------------------------------------------0-------0--------0--------------|
-1-3------------------------0----0-1-3---------0-------0--------0--------------|
-----2--------0----0-2-0-2--0--2-----2-------2-1-----2-1-----2--1--------------|
-----0--4--0--2--4---0------2--------------------2--------2-------2------------|
--------------3------2------0----------------------------------------2---------|
----------------------------------------00-----2-------2--------2------2-------|


--14---------7h9h10-7---------------------12--------------------------^19------|
------7h9h10------------------------^7-----------------9h10h12--9-----^19------|
----------------------------------------------9h11h13-----------------^19------|
------------------------------^7--------------------------------------^19------|
-------------------------------------------------------------------------------|
-------------------------------------------------------------------------------|


---------------------0---------------------------------------------------------|
-9h10-9-------------------------^12----------------------------------------*7--|
------------------------7-------------6--------------4--------^12-------*6-----|
---------------^9----------^12------------------^7--------^12--------7---------|
-------------------------------------------^7----------------------------------|
------------^9-----------------------------------------------------------------|


-------------------------------------------------------------------------------|
------0--2-0-----------------------7-7------3--3-----0--0----------0----2-0----|
--1-2--------2--1-2-1--------------6-6------2--2-----2--2------1-2----------2--|
----------------------2---4--4-----4-4------4--4-----0--0----------------------|
--------------------------4--4-------------------------------------------------|
--2------0------2---------4----4---4--------0----0---0----0----2-----2--0------|


-------------------------------------------------------------------------------|
--------------------7--7---3--3-----0--0-----------------0-----2---0-----------|
---1-2-1------------6--6---2--2-----2--2---------1---2------------------2------|
---------2-4--4-----4--4---4--4-----0--0-----------0---0---0-----0---0----0----|
-----------4--4----------------------------------------------------------------|
-0-2-------4----4---4------0----0---0-----0------2-------------0---------------|


-------------------------------------------------------------------------------|
--------------------------7--7----3--3-------0-0---------0--------2-0----------|
---1---2---1--------------6--6----2--2-------2-2-----1-2--------------2--------|
-----0---0---2---4-4------4--4----4--4-------0-0------------0--------------0---|
-----------------4-4-----------------------------------------------------------|
---2-------------4---4----4-------0----0-----0---0---2----2-------0------0-----|


----------------------------------------------------0--0-----0--0----0---------|
-----------------------7-7---3---3--------0--0------0--0-----0--0----0---------|
--1-2-1----------------6-6---2---2--------2--2------1--1-----1--1----1---------|
----------2----4-4-----4-4---4---4--------0--0------2--------------------------|
---------------4-4----------------------------------2--------------------------|
--2-----2------4---4---4-----0-------0----0----0----2----2---0----0--2---------|


---5-5p4--5--5p4---5--5p4--5-7--0-----5-5p4-----5p4---------------0-----------|
-----4-------4--------4---------0-------4---5---4---5--3--2-0-2-4---0---------|
--------------------------------------------------------------------1---------|
----------------------------------2-----2-------2-----------------------------|
----------------------------------------------------------0------------0------|
------------------------------------------------------------------------------|


--------------2---2----4-5-4-----0---2-2------0--0-------------------------5---|
--0--2--4-5---4--5-----5-------------3-3------2--2------3--3-----2-------3-----|
-----2--------4-----------------------------------------4--4-----2-----4-------|
-----2-------------------------------0----0---0----0----0----0---0---0---------|
-----0--------0--------0------0------------------------------------------------|
-------------------------------------------------------------------------------|


--2---3---------0----2-------------0------------0------------------------------|
--3-----3-------2------2--------3----3--------2---2-------0--0-----------------|
--4-------4-----2--------2------4------4------2-----2-----0----0-------2-------|
--0---------0---0----------0----0---------0---0-------0---2------3-----0-------|
----------------------------------------------------------3--------2---2-------|
-------------------------------------------------------------------------------|


------------------------------------------------0-----------------------------|
--0--------------0------------------------------0------------7--7---3--3------|
----2--------0-----0----------0------------------------------6--6---2--2------|
------0------2-------2-----4----4-------2-2----------4-4-----4--4---4--4------|
--------2----0---------0---0------0-----2-2----------4-4----------------------|
---------------------------0--------0---2---2--------4---4---4------0----0----|


------------------------------------------------4-------------0---------------|
-0-0--------0----2-0-------------------------7----7---------3---3-------------|
-2-2----1-2----------2----1-2-1--------------6------6-------------2-----------|
-0-0-----------0--------0---------2---4-4----4--------5-------------4---------|
--------------------------------------4-4----4--------------------------------|
-0---0--2----2---0-----0--2-----2-----4---4--4--------------0-----------------|


--------------------------------------------------------------------4----------|
----2------------------0----2---0---------------------------------7---7--------|
--4---4-2------1---2----------------2------1---2---1--------------------6------|
-----------4-----0---0---0----0---0---0------0---0---2---4-4--------------4----|
---------------------------------------------------------4-4-------------------|
--0------------2------------0--------------2-------------4----4---4------------|


----0-----------0-------------------------------------------------------------|
--3---3-------0---0------------0--------2-0-----------------------------------|
--------2-----------2------1-2--------------2--------1-2-1--------------------|
----------4-----------0-------------0------------0-----------2----4-4---------|
------------------------------------------------------------------4-4---------|
--0-----------0------------2------2-----0------0-----2-----2------4---4-------|


-----------------------0--0-----0--0----0--0----0--0-----0-0----0--0---0---0--|
--7--7--3-3---0-0------0--0-----0--0----0--0----0--0-----0-0----0--0---10--10-|
--6--6--2-2---2-2------1--1-----1--1----1--1----1--1-----1-1------------------|
--4--4--4-4---0-0------2----------------2-------0----0---2---2--7--6---12-----|
-----------------------2----------------2-------------------------------------|
--4-----0--0--0---0----2----2---0----0--2----2--------------------------------|


------------||
------0-----||
------13----||
-12---14----||
------------||
------------||
Добавлено: 30.05.2012
Другие материалы по этой песне:
  • Аккорды и текст

Страница создана 30.05.2012
http://primanota.ru/andrew-york/3-dances-bagatelle-chords.htm
Привет, Гость.
Предлагаем пройти революционный курс по гитаре.
Подарок от PrimaNota.Ru, забирай!