PrimaNota.ru - самый крупный в мире бесплатный архив песенных текстов, аккордов, табулатур и нот


Andrew Stockdale - Long Way To Go - таба, видео

Регистрация Запомнить меня
Войти через:  Facebook Google Twitter Vk Yandex Mail.ru

Andrew Stockdale - Long Way To Go - таба, видео

Печатать
Просмотров: 103
Авторы музыки: Andrew Stockdale
Авторы текста: Andrew Stockdale
-------------------------------------------------------------------------------
                                                   Long Way To Go - Andrew Stockdale
-------------------------------------------------------------------------------
Tabbed by: Johnny Westtag

Sometimes I transposed Vin's part cause it sounds fatter.
Here it goes!

1st.Guitar: Andrew Stockdale
2nd.Guitar: Vin Steele
KEY: Dbm

Tuning:EADGHe
                                       Intro/ Main Riff
  1st.Guitar     
e|---------------------------------------------------------------------------|
B|---------------------------------------------------------------------------|
G|---------------------------------------------------------------------------|x4
D|---------------------------------------------------------------------------|
A|-11-11-13-11---------11-13p11-14-11-13---11-11-13-11----------7-7--8--9----|
E|-9--9--9--9----------9--9-----9--9---9---9--9--9--9-----------5-5--6--7----|

  2nd.Guitar (starts at the second run and plays the same as the first) 
e|---------------------------------------------------------------------------|
B|---------------------------------------------------------------------------|
G|---------------------------------------------------------------------------|
D|---------------------------------------------------------------------------|
A|--------------------------------------------------------------7-7--8--9----|
E|--------------------------------------------------------------5-5--6--7----|

                                       Vers
  2nd.Guitar
e|---------------------------------------------------------------------------|
B|---------------------------------------------------------------------------|
G|---------------------------------------------------------------------------|x2
D|-9---------------------------------------9\--------------------------------|
A|-9---------------------------------------9\-------------------7-7--8--9----|
E|-7---------------------------------------7\-------------------5-5--6--7----|

e|---------------------------------------------------------------------------|
B|---------------------------------------------------------------------------|
G|---------------------------------------------------------------------------|
D|-11-11-13-11-----------------------------11-11-13-11----------9-9----------|
A|-9--9--9--9------------------------------9--9--9--9-----------7-7--9-9-----|
E|-------------------------------------------------------------------7-7-----|

  1st.&2nd.Guitar
e|---------------------------------------------------------------------------|
B|---------------------------------------------------------------------------|
G|---------------------------------------------------------------------------|
D|---------------------------------------------------------------------------|
A|-11-11-13-11---------11-13p11-14-11-13---11-11-13-11----------7-7--8--9----|
E|-9--9--9--9----------9--9-----9--9---9---9--9--9--9-----------5-5--6--7----|

                                       Pre Chorus
  1st.&2nd.Guitar
e|---------------------------------------------------------------------------|
B|---------------------------------------------------------------------------|
G|---------------------------------------------------------------------------|
D|-6-------------------5-------4--------------------------------9-9----------|
A|-6-------------------5-------4--------------------------------7-7--9-9-----|
E|-4-------------------3-------2-------------------------------------7-7-----|

  1st.&2nd.Guitar
e|---------------------------------------------------------------------------|
B|---------------------------------------------------------------------------|
G|---------------------------------------------------------------------------|
D|---------------------------------------------------------------------------|
A|-11-11-13-11---------11-13p11-14-11-13---11-11-13-11-----------------------|
E|-9--9--9--9----------9--9-----9--9---9---9--9--9--9------------------------|

                                       Chorus
  1st.Guitar
e|---------------------------------------------------------------------------|
B|---------------------------------------------------------------------------|
G|---------------------------------------------------------------------------|x2
D|-----------2----------------------------------------------6--6--6--6-------|
A|-4--4--2h4---4p2---------------2------------------2-------4--4--4--4-------|
E|---------------------4--4--2h4---4p2----2--2--0h2---2p0--------------------|

  2nd.Guitar
e|---------------------------------------------------------------------------|
B|---------------------------------------------------------------------------|
G|---------------------------------------------------------------------------|
D|---------------------------------------------------------------------------|
A|-----------7-------------------2------------------2-------11-11-11-11------|
E|-9--9--7h9---9p7-----4--4--2h4---4p2----2--2--0h2---2p0---9--9--9--9-------|


e|---------------------------------------------------------------------------|
B|---------------------------------------------------------------------------|
G|---------------------------------------------------------------------------|
D|---------------------------------------------------------------------------|
A|-11-11-----7-------------------2------------------2-------11-11-11-11------|
E|-9--9--7h9---9p7-----4--4--2h4---4p2----2--2--0h2---2p0---9--9--9--9-------|

                                       Main Riff
  1st.&2nd.Guitar
e|---------------------------------------------------------------------------|
B|---------------------------------------------------------------------------|
G|---------------------------------------------------------------------------|x2
D|---------------------------------------------------------------------------|
A|-11-11-13-11---------11-13p11-14-11-13---11-11-13-11----------7-7--8--9----|
E|-9--9--9--9----------9--9-----9--9---9---9--9--9--9-----------5-5--6--7----|

                                       Vers
  2nd.Guitar
e|---------------------------------------------------------------------------|
B|---------------------------------------------------------------------------|
G|---------------------------------------------------------------------------|x2
D|-9---------------------------------------9\--------------------------------|
A|-9---------------------------------------9\-------------------7-7--8--9----|
E|-7---------------------------------------7\-------------------5-5--6--7----|

e|---------------------------------------------------------------------------|
B|---------------------------------------------------------------------------|
G|---------------------------------------------------------------------------|
D|-11-11-13-11---------11-13p11-14-11-13---11-11-13-11-----------9-9---------|
A|-9--9--9--9----------9--9-----9--9--9----9--9--9--9------------7-7--9-9----|
E|--------------------------------------------------------------------7-7----|

  1st.&2nd.Guitar
e|---------------------------------------------------------------------------|
B|---------------------------------------------------------------------------|
G|---------------------------------------------------------------------------|
D|---------------------------------------------------------------------------|
A|-11-11-13-11---------11-13p11-14-11-13---11-11-13-11----------7-7--8--9----|
E|-9--9--9--9----------9--9-----9--9---9---9--9--9--9-----------5-5--6--7----|

                                       Pre Chorus
  1st.&2nd.Guitar
e|---------------------------------------------------------------------------|
B|---------------------------------------------------------------------------|
G|---------------------------------------------------------------------------|
D|-6-------------------5-------4--------------------------------9-9----------|
A|-6-------------------5-------4--------------------------------7-7--9-9-----|
E|-4-------------------3-------2-------------------------------------7-7-----|

  1st.&2nd.Guitar
e|---------------------------------------------------------------------------|
B|---------------------------------------------------------------------------|
G|---------------------------------------------------------------------------|
D|---------------------------------------------------------------------------|
A|-11-11-13-11---------11-13p11-14-11-13---11-11-13-11-----------------------|
E|-9--9--9--9----------9--9-----9--9---9---9--9--9--9------------------------|

                                       Chorus
  1st.Guitar
e|---------------------------------------------------------------------------|
B|---------------------------------------------------------------------------|
G|---------------------------------------------------------------------------|x2
D|-----------2----------------------------------------------6--6--6--6-------|
A|-4--4--2h4---4p2---------------2------------------2-------4--4--4--4-------|
E|---------------------4--4--2h4---4p2----2--2--0h2---2p0--------------------|

  2nd.Guitar
e|---------------------------------------------------------------------------|
B|---------------------------------------------------------------------------|
G|---------------------------------------------------------------------------|
D|---------------------------------------------------------------------------|
A|-----------7-------------------2------------------2-------11-11-11-11------|
E|-9--9--7h9---9p7-----4--4--2h4---4p2----2--2--0h2---2p0---9--9--9--9-------|


e|---------------------------------------------------------------------------|
B|---------------------------------------------------------------------------|
G|---------------------------------------------------------------------------|
D|---------------------------------------------------------------------------|
A|-11-11-----7-------------------2------------------2-------11-11-11-11------|
E|-9--9--7h9---9p7-----4--4--2h4---4p2----2--2--0h2---2p0---9--9--9--9-------|

                                       Break
  1st.Guitar
e|-------------------|-------------------|
B|-------------------|-------------------|
G|-------------------|-------------------|
D|-6--6--6-6--6--6-6-|-4--4--4-4--4--4-4-|
A|-4--4--4-4--4--4-4-|-2--2--2-2--2--2-2-|
E|-------------------|-------------------|
 
e|-------------------|-------------------|
B|-------------------|-------------------|
G|-------------------|-------------------|
D|-------------------|-6--6--6-6--6--6-6-|x2 
A|-4--4--4-4--4--4-4-|-4--4--4-4--4--4-4-|
E|-2--2--2-2--2--2-2-|-------------------|


  2nd.Guitar
e|--------------------------|---------------------|
B|--------------------------|---------------------|
G|--------------------------|---------------------|
D|--------------------------|---------------------|
A|-11--11--11-11--11--11-11-|-9--9--9-9--9--9-9---|
E|-9---9---9--9---9---9--9--|-7--7--7-7--7--7-7---|

e|--------------------------|---------------------|
B|--------------------------|---------------------|
G|--------------------------|---------------------|
D|--------------------------|-6--6-------11-11-11-|
A|-4--4--4-4--4--4-4--------|-4--4--9-11-9--9--9--|
E|-2--2--2-2--2--2-2--------|-------9-11----------|

e|--------------------------|---------------------|
B|--------------------------|---------------------|
G|--------------------------|---------------------|
D|--------------------------|---------------------|
A|-11--11--11-11--11--11-11-|-9--9--9-9--9--9-9---|
E|-9---9---9--9---9---9--9--|-7--7--7-7--7--7-7---|

e|--------------------------|---------------------|
B|--------------------------|---------------------|
G|--------------------------|---------------------|
D|--------------------------|---------------------|
A|-4--4--4-4--4--4-4--------|-9--9--9-9--9--9-9---|
E|-2--2--2-2--2--2-2--------|-7--7--7-7--7--7-7---|

  1st.&2nd.Guitar
e|---------------------------------------------------------------------------|
B|---------------------------------------------------------------------------|
G|---------------------------------------------------------------------------|
D|-9--9-----------------------11--11-----------------------------------------|
A|-7--7--9--9-9--9-9-9--------9---9---11--11-11--11-11-11--------------------|
E|-------7--7-7--7-7-7----------------9---9--9---9--9--9---------------------|

e|---------------------------------------------------------------------------|
B|---------------------------------------------------------------------------|
G|---------------------------------------------------------------------------|
D|-9--9----------------------------------------------------------------------|
A|-7--7--9--9-9--9-9-9--------6-6-6-6-6-6-6-6-6-6-6-6-6-6-6-6----------------|
E|-------7--7-7--7-7-7--------4-4-4-4-4-4-4-4-4-4-4-4-4-4-4-4----------------|
                                      Solo

  1st.Guitar (you better use a Dbminor scale)
e|-------------------------------------------------------------------------------------|
B|-7b9------9p7------------------------------------------------------------------------|
G|---------------9-----9--11--9-----9-----------13-------------------------------------|
D|------------------11-----------11---9h11---14----16--14---16p14---14-----------------|
A|---------------------------------------------------------------16----16-14h16--------|
E|--------------------------------------------------------------------------------14---|

  2nd.Guitar
e|---------------------------------------------------------------------------|
B|---------------------------------------------------------------------------|
G|---------------------------------------------------------------------------|x2
D|---------------------------------------------------------------------------|
A|-11-11-13-11---------11-13p11-14-11-13---11-11-13-11----------7-7--8--9----|
E|-9--9--9--9----------9--9-----9--9---9---9--9--9--9-----------5-5--6--7----|

                                      Vers
  2nd.Guitar
e|---------------------------------------------------------------------------|
B|---------------------------------------------------------------------------|
G|---------------------------------------------------------------------------|x2
D|-9---------------------------------------9\--------------------------------|
A|-9---------------------------------------9\-------------------7-7--8--9----|
E|-7---------------------------------------7\-------------------5-5--6--7----|

e|---------------------------------------------------------------------------|
B|---------------------------------------------------------------------------|
G|---------------------------------------------------------------------------|
D|-11-11-13-11---------11-13p11-14-11-13---11-11-13-11-----------9-9---------|
A|-9--9--9--9----------9--9-----9--9--9----9--9--9--9------------7-7--9-9----|
E|--------------------------------------------------------------------7-7----|

  1st.&2nd.Guitar
e|---------------------------------------------------------------------------|
B|---------------------------------------------------------------------------|
G|---------------------------------------------------------------------------|
D|---------------------------------------------------------------------------|
A|-11-11-13-11---------11-13p11-14-11-13---11-11-13-11----------7-7--8--9----|
E|-9--9--9--9----------9--9-----9--9---9---9--9--9--9-----------5-5--6--7----|
                                      Pre Chorus
  1st.&2nd.Guitar
e|---------------------------------------------------------------------------|
B|---------------------------------------------------------------------------|
G|---------------------------------------------------------------------------|
D|-6-------------------5-------4--------------------------------9-9----------|
A|-6-------------------5-------4--------------------------------7-7--9-9-----|
E|-4-------------------3-------2-------------------------------------7-7-----|

  1st.&2nd.Guitar
e|---------------------------------------------------------------------------|
B|---------------------------------------------------------------------------|
G|---------------------------------------------------------------------------|
D|---------------------------------------------------------------------------|
A|-11-11-13-11---------11-13p11-14-11-13---11-11-13-11-----------------------|
E|-9--9--9--9----------9--9-----9--9---9---9--9--9--9------------------------|

Now let the organ and the bass doing their job


                                      Break
  1st.Guitar
e|-------------------|-------------------|
B|-------------------|-------------------|
G|-------------------|-------------------|
D|-6--6--6-6--6--6-6-|-4--4--4-4--4--4-4-|
A|-4--4--4-4--4--4-4-|-2--2--2-2--2--2-2-|
E|-------------------|-------------------|
 
e|-------------------|-------------------|
B|-------------------|-------------------|
G|-------------------|-------------------|x3
D|-------------------|-6--6--6-6--6--6-6-| 
A|-4--4--4-4--4--4-4-|-4--4--4-4--4--4-4-|
E|-2--2--2-2--2--2-2-|-------------------|


  2nd.Guitar
e|--------------------------|---------------------|
B|--------------------------|---------------------|
G|--------------------------|---------------------|
D|--------------------------|---------------------|
A|-11--11--11-11--11--11-11-|-9--9--9-9--9--9-9---|
E|-9---9---9--9---9---9--9--|-7--7--7-7--7--7-7---|

e|--------------------------|---------------------|
B|--------------------------|---------------------|
G|--------------------------|---------------------|
D|--------------------------|-6--6-------11-11-11-|
A|-4--4--4-4--4--4-4--------|-4--4--9-11-9--9--9--|
E|-2--2--2-2--2--2-2--------|-------9-11----------|

e|--------------------------|---------------------|
B|--------------------------|---------------------|
G|--------------------------|---------------------|
D|--------------------------|---------------------|
A|-11--11--11-11--11--11-11-|-9--9--9-9--9--9-9---|
E|-9---9---9--9---9---9--9--|-7--7--7-7--7--7-7---|

e|--------------------------|---------------------|
B|--------------------------|---------------------|
G|--------------------------|---------------------|
D|--------------------------|---------------------|
A|-4--4--4-4--4--4-4--------|-9--9--9-9--9--9-9---|
E|-2--2--2-2--2--2-2--------|-7--7--7-7--7--7-7---|

e|--------------------------|---------------------|
B|--------------------------|---------------------|
G|--------------------------|---------------------|
D|--------------------------|---------------------|
A|-11--11--11-11--11--11-11-|-9--9--9-9--9--9-9---|
E|-9---9---9--9---9---9--9--|-7--7--7-7--7--7-7---|

e|--------------------------|---------------------|
B|--------------------------|---------------------|
G|--------------------------|---------------------|
D|--------------------------|-6--6-------11-11-11-|
A|-4--4--4-4--4--4-4--------|-4--4--9-11-9--9--9--|
E|-2--2--2-2--2--2-2--------|-------9-11----------|

                               Outro/ Main Riff

  1st.&2nd.Guitar     
e|---------------------------------------------------------------------------|
B|---------------------------------------------------------------------------|
G|---------------------------------------------------------------------------|x2
D|---------------------------------------------------------------------------|
A|-11-11-13-11---------11-13p11-14-11-13---11-11-13-11----------7-7--8--9----|
E|-9--9--9--9----------9--9-----9--9---9---9--9--9--9-----------5-5--6--7----|


************************************

| /   slide up
| \   slide down
| h   hammer-on
| p   pull-off
| ~   vibrato
| +   harmonic
| x   Mute note
| b   Bend
| pb  Pre-bend
| br  Bend release
| pbr Pre-bend release
| brb Bend release bend

************************************
Добавлено: 22.09.2013
Вам также может быть интересно:
Другие материалы по этой песне:
  • Аккорды и текст

Страница создана 22.09.2013
http://primanota.ru/andrew-stockdale/long-way-to-go-chords.htm
Привет, Гость.
Предлагаем пройти революционный курс по гитаре.
Подарок от PrimaNota.Ru, забирай!