PrimaNota.ru - самый крупный в мире бесплатный архив песенных текстов, аккордов, табулатур и нот


Andrew Stockdale - It Occurred To Me - таба, видео

Регистрация Запомнить меня
Войти через:  Facebook Google Twitter Vk Yandex Mail.ru

Andrew Stockdale - It Occurred To Me - таба, видео

Печатать
Просмотров: 104
-------------------------------------------------------------------------------
                             It Occurred To Me - Andrew Stockdale (Album Version)
-------------------------------------------------------------------------------
Tabbed by: Johnny Westtag


Tuning: EADGHe
Key: Bm

Intro                                    
e|---------------------------------------------------------------------------|
B|---------------------------------------------------9-7---------------------|
G|---------------------------------------------------9-7---------------------|x2
D|-----------9v--9v-7h9p7---7----------------------9-9-7-7h9p7---7-----------|
A|-----5-7-9--------------9---9-8p7-5--------5-7-9-------------9---9-8p7-5---|
E|-5h7--------------------------------7--5h7-------------------------------7-|

Verse 1 is the same as the Intro

Chorus
e|---------------------------------------------|
B|---------------------------------------------|
G|---------------------------------------------|
D|-7/9-9-9-9-12-12-12-12-12-12-9-7-9-9-9-9\----|
A|-7/9-9-9-9-12-12-12-12-12-12-9-7-9-9-9-9\----|
E|-5/7-7-7-7-10-10-10-10-10-10-7-5-7-7-7-7\----|

Post Chorus play one time the intro

Verse 2
e|--------------------------------------|
B|--------------------------------------|
G|--------------------------------------|
D|-----------9v--9v-7h9p7---7-----------|
A|-----5-7-9--------------9---9-8p7-5---|
E|-5h7--------------------------------7-|

Verse 3
e|--------------------------------------|
B|-------------9-7----------------------|
G|-------------9-7----------------------|
D|-----------9-9-7-7h9p7---7------------|
A|-----5-7-9-------------9---9-8p7-5----|
E|-5h7-------------------------------7--|

e|-------------------------------------|
B|-------------9-7---------------------|
G|-------------9-7---------------------|
D|---------7-9-9-7-7h9p7---7---------5-|
A|-----5-7---------------9---9-8p7-5-5-|
E|-5h7-------------------------------7-|

e|-------------------------------------|
B|-------------9-7---------------------|
G|-------------9-7---------------------|
D|---------7-9-9-7-7h9p7---7-----------|x2
A|-----5-7---------------9---9-8p7-5---|
E|-5h7-------------------------------7-|

At 2min33s and at 3min30s there is a variation of the chorus
e|---------------------------------------------------|
B|---------------------------------------------------|
G|---------------------------------------------------|
D|-9/11-11-11-11-14-14-14-14-14-14-11-9-11-11-11-11\-|
A|-9/11-11-11-11-14-14-14-14-14-14-11-9-11-11-11-11\-|
E|-7/9--9--9--9--12-12-12-12-12-12-9--7-9--9--9--9\--|

Solo (he is playing this 10 and 12 thing over and 
over with some small changes)
e|--------------10-------10-12-12p10-----------------------------------------|
B|--------10-12----10h12-------------10(at the end)-12p10--------------------|
G|-7-9-11------------------------------------------------11-9-7--------------|
D|--------------------------------------------------------------9p7----------|
A|------------------------------------------------------------------9-7------|
E|----------------------------------------------------------------------7----|

Outro is like the Intro but you hit the last note twice


Song Structure:

Intro x4
Verse 1 x2
Chorus x4
Post Chrous x1
Verse 2 x4
Chorus x4
Post Chorus x1
Verse 3
Chorus x4
Chorus Vari x2
Chorus x2
Verse 2 x6 (Solo)
Chorus x2
Chorus Vari x2
Chorus x2
Intro x2

************************************

| /   slide up
| \   slide down
| h   hammer-on
| p   pull-off
| v   vibrato
| b   Bend


************************************
Добавлено: 17.07.2013
Другие материалы по этой песне:
  • Аккорды и текст

Страница создана 17.07.2013
http://primanota.ru/andrew-stockdale/it-occurred-to-me-chords.htm
Привет, Гость.
Предлагаем пройти революционный курс по гитаре.
Подарок от PrimaNota.Ru, забирай!