PrimaNota.ru - самый крупный в мире бесплатный архив песенных текстов, аккордов, табулатур и нот


Andrew Jackson Jihad - Joe Arpaio Is A Punk - аккорды и текст, видео

Регистрация Запомнить меня
Войти через:  Facebook Google Twitter Vk Yandex Mail.ru

Andrew Jackson Jihad - Joe Arpaio Is A Punk - аккорды и текст, видео

Печатать
Просмотров: 46
Joe Arpaio Is A Punk
Andrew Jackson Jihad
Note: Some of this song is taken from "California Uber Alles" by The Dead Kennedys. 
I've taken some bits of that tab and thrown it in here - they were originally posted by Adam_Harrison9 
and I don't take credit for them. I've only tabbed out the chord bits.

Intro
e|--------------------|
B|--------------------|
G|--------------------|
D|--------------------|
A|-6--7--9-7-6--7--9-7|
E|--------------------| X4


C               G
Joe Arpaio is a chump
C               G
Joe Arpaio is a chump
C                  Em    Am
He's never heard of the Constitution!

C               G
Joe Arpaio is a chump
C               G
Joe Arpaio is a chump
C                  Em   Am
He's never heard of the Bill of Rights!

C
We've got the right to bear arms
G
We've got the right to assemble
Am
We've got the right to due process
E                      F
We've got the right to council

C               G
Joe Arpaio is a chump
C               G
Joe Arpaio is a chump
C                  Em    Am
He's never heard of the Constitution!

C               G
Joe Arpaio is a chump
C               G
Joe Arpaio is a chump
C                  Em   Am
He's never heard of the Bill of Rights!

C                          G
No cruel and unusual punishment
E                              F
And no unreasonable search and seizure
Am                         G
Plus, we've got freedom of speech
F                                G
So I can say, I can say at my leisure that...

C                         F  G
I've got somethin' to say
C                     F  G
I killed Arpaio today
C                             G
And it matters a whole lot to me
C                              F  G
That that racist fuck is dead

C        F  G

During:

Arizona Über Alles
Arizona Über Alles
Über Alles Arizona
Über Alles Arizona

Play:

 
e|------------------------------|
B|------------------------------|
G|-88------88------8-88888------|
D|-88------88------8-8888866666-|
A|-66------66------6-6666666666-|
E|------------------------44444-| X2

e|-----------------------------------|
B|-----------------------------------|
G|-8-88888-666-------8-88888-44------|
D|-8-88888-666-55-4--8-88888-44-55-4-|
A|-6-68888-444-55-4--6-66666-22-55-4-|
E|-------------33-2-------------33-2-|    X4

e|--------------------|
B|--------------------|
G|-8-8888-8886-66--66-|
D|-8-8888-8886-666666-|
A|-6-6666-6664-446644-|
E|---------------44---| X3

e|-------------|
B|-------------|
G|-8----8888---|
D|-8----8888---|
A|-6----6666---|
Добавлено: 31.10.2015
Другие материалы по этой песне:
  • Аккорды и текст

Страница создана 31.10.2015
http://primanota.ru/andrew-jackson-jihad/joe-arpaio-is-a-punk-chords.htm
Привет, Гость.
Предлагаем пройти революционный курс по гитаре.
Подарок от PrimaNota.Ru, забирай!