PrimaNota.ru - самый крупный в мире бесплатный архив песенных текстов, аккордов, табулатур и нот


Andrew Bird - Headsoak - аккорды и текст, таба, видео

Регистрация Запомнить меня
Войти через:  Facebook Google Twitter Vk Yandex Mail.ru

Andrew Bird - Headsoak - аккорды и текст, таба, видео

Печатать
Просмотров: 131
Headsoak
Andrew Bird
Andrew Bird - Headsoak - The Swimming Hour (2001)

Intro: E A E B7 3x

Violin intro (for guitar):
                                                     |1.               |2.
e|--------| |-----12-9----|------12-9----|-----12--9-|---------------| |-------|
B|------8-|*|-9--------12-|-----------12-|-----------|-12--10-9--11--|*|-12----|
G|-9-11---| |-------------|--------------|-----------|---------------| |-------|
D|--------| |-------------|-11-----------|-9---------|---------------| |-------|
A|--------|*|-------------|--------------|-----------|---------------|*|-------|
E|--------| |-------------|--------------|-----------|---------------| |-------|
           
          E
I was walking
        E7
With my feet
       A
A disposition
         Am
Fell over me
        E
And the armory wall was bleeding
B7
  The restless child was reading

E A E B7

e|-----12-9----|------12-9----|-----12--9-|----------------|
B|-9--------12-|-----------12-|-----------|-12---12-10-9---|
G|-------------|--------------|-----------|--------------9-|
D|-------------|-11-----------|-9---------|----------------|
A|-------------|--------------|-----------|----------------|
E|-------------|--------------|-----------|----------------|

      E
I was swimming
             E7
Could hardly stand
             A           Am
The swimming hour was at hand
        E
And the fishes they were feeding
B7
   The lambs they were bleating

E A E B7

e|-----12-9----|------12-9----|-----12--9-|-------------|
B|-9--------12-|-----------12-|-----------|-12--11--10--|
G|-------------|--------------|-----------|-------------|
D|-------------|-11-----------|-9---------|-------------|
A|-------------|--------------|-----------|-------------|
E|-------------|--------------|-----------|-------------|

A
Ooh - I walk slowly
E
Ooh - I walk slowly
B7
  I walk slowly
A        Am             E A E B7
  When I walk away from you

Whistling Solo - |E    |E7   |A    |Am  
                 |E    |B7   |A Am |E    |B7   |

(Single Strum):
            E
I'm feeling bad
            E
I'm looking bad
  A                Am
I feel and look so bad
           E
Some might say                  (Regular Strumming)
      B7                    A Am E B7
Yours truly is soaking his head

             E
There's apprehension
        E7
And inhibition
          A
All contributions
       Am
To my, to my attrition
                E
And it happened long ago
      B7
These things, these things
     A                    Am
That make me walk so darn slow

End on E
Добавлено: 22.10.2015
Другие материалы по этой песне:
  • Аккорды и текст

Страница создана 03.07.2013
http://primanota.ru/andrew-bird/headsoak-chords.htm
Привет, Гость.
Предлагаем пройти революционный курс по гитаре.
Подарок от PrimaNota.Ru, забирай!