PrimaNota.ru - самый крупный в мире бесплатный архив песенных текстов, аккордов, табулатур и нот


Andrew Belle - All Those Pretty Lights Alternate Universe Version - таба, видео

Регистрация Запомнить меня
Войти через:  Facebook Google Twitter Vk Yandex Mail.ru

Andrew Belle - All Those Pretty Lights Alternate Universe Version - таба, видео

Печатать
Просмотров: 146
-------------------------------------------------------------------------------
      ALL THOSE PRETTY LIGHTS (Alternate Universe Version) - Andrew Belle
-------------------------------------------------------------------------------
Tabbed by: Joe Mohrbacher
E-mail: jmohrbac@gmail.com

Tuning: Drop-D

Capo 3

All relative to capo

INTRO: (also used for post-chorus transitions and outro)
e[---------------------------------------------------------------|
B[-----7--------------3--------------2--------------0------------|
G[---------------------------------------------------------------|
D[---------0--(4x)--------0--(4x)--------0--(4x)--------0--(4x)--|
A[---5---5----------2---2----------0---0-------------------------|
E[------------------------------------------------5---5----------|

VERSE: (palm muted)
e[---------------------------------------------------------------|
B[-----3--------------2-----------------------------0------------|
G[-----------------------------------2---------------------------|
D[---------0--(4x)--------0--(4x)--------0--(4x)--------0--(4x)--|
A[---2---2----------0---0----------------------------------------|
E[---------------------------------4---4----------5---5----------|

CHORUS:
e[---------------------------------------------------------------|
B[--------------------0--------------3--------------2------------|
G[-----2---------------------------------------------------------|
D[---------0--(4x)--------0--(4x)--------0--(4x)--------0--(4x)--|
A[---------------------------------2---2----------0---0----------|
E[---4---4----------5---5----------------------------------------|

BRIDGE:
e[-----3--------------2------------------------------------------|
B[-----------------------------------3---------------------------|
G[--------------------------------------------------7------------|
D[---------0--(4x)--------0--(4x)--------0--(4x)--------0--(4x)--|
A[---------------------------------2---2-------------------------|
E[---2---2----------0---0-------------------------5---5----------|
Добавлено: 31.07.2015
Другие материалы по этой песне:
  • Аккорды и текст

Страница создана 31.07.2015
http://primanota.ru/andrew-belle/all-those-pretty-lights-alternate-universe-version-chords.htm
Привет, Гость.
Предлагаем пройти революционный курс по гитаре.
Подарок от PrimaNota.Ru, забирай!