PrimaNota.ru - самый крупный в мире бесплатный архив песенных текстов, аккордов, табулатур и нот


Andres Segovia - Canciones Populares De Distintos Paises - Escocesa - таба, видео

Регистрация Запомнить меня
Войти через:  Facebook Google Twitter Vk Yandex Mail.ru

Andres Segovia - Canciones Populares De Distintos Paises - Escocesa - таба, видео

Печатать
Просмотров: 196
Уроки эстрадного вокала в Санкт-Петербурге
Canciones populares de distintos paises - Escocesa
Andres Segovia (1893-1987)

Arranger:Andres Segovia
Taken from Eliot Fisks Video "SEGOVIA"
TABBED By Austin Baldwin
baldwins@ticon.net

Tuning: E A D G B E  -  Time Signature: 4/4

Moderato assai

 |       |       |       |        |       |       |       |        
|--------------------------------|0-------0---2---4-------2h--0---|
|------------------0---4---------|0---------------0---------------|
|--------------------------------|1-------------------------------|
|--------------------------------|----------------2---------------|
|--------------------------------|--------------------------------|
|--------------------------------|0-------------------------------|

 |       |       |       |        |       |       |       |        
|2-------2---0-------------------|--0-----0-----0-----4---5-------|
|2---------------------0-------4-|--0-----0-----0-----4-----------|
|2---------------6---------2-----|--1-----1-----1-----------------|
|----------------7---------4-----|--2-----1-----------------------|
|----------------7---------------|--------------4-----2-----------|
|0-------------------------------|--------------------------------|

 |       |       |       |        |       |       |       |        
|9-------------7-----------------|--9-------9---7---4-----4---7---|
|10------------7-----------9-----|--9---------------4-------------|
|9-------------8-----------8-----|--9---------------1-------------|
|7-------------9-----------9-----|--------------------------------|
|0-------------9-----------11----|------------------2-------------|
|--------------7-----------------|--9-----------------------------|

 |       |       |       |        |       |       |       |        
|5h--4-----2---0-----------------|0---0-----4---7---9-----7---4---|
|2-----------------2---0-------4-|2---------4-------------4-------|
|2-------------------------2-----|1-----------------9-----4-------|
|------------------4-------------|--------------------------------|
|------------------0-------2-----|4---------2-------0-------------|
|2-------------------------------|------------------------4-------|

 |       |       |       |        |       |       |       |        
|--2---------0-------------------|0-------0---2-----4-----4---2---|
|--0---------0-------------0-----|0-------2---------4-----4-------|
|----2-------1---------2---------|1-------1---------1-----4-------|
|----1-----------------1---------|2-------------------------------|
|----2-----------------2---------|--------4---------2-------------|
|------------0-------------------|------------------------4-------|

 |       |       |       |        |       |       |       |        
|--0-------0---------------------|--0-----0-----0-----4---7-------|
|--2-----------2---0---0-------4-|--0-----0-----0-----4-----------|
|----------2---------------2-----|--1-----1-----1-----------------|
|------------------4-------4-----|--2-----1-----------------------|
|--0---2---4-------6-------------|--------------4-----2-----------|
|--------------------------------|--------------------------------|

 |       |       |       |        |       |       |       |        
|--9---------7-------------------|--9-------9---7-----4---4---7---|
|--10--------7---------9---------|--9-----------------4-----------|
|--9---------8---------8---------|--9-----------------1-----------|
|--7---------9---------9---------|--------------------------------|
|--0---------9---------11--------|--------------------2-----------|
|------------7-------------------|--9-----------------------------|

 |       |       |       |        |       |       |       |        
|--5---4h----2---0---------------|--0-0-----4---7-----9-----7---4-|
|--2-----------------2-----0---4-|--2-------4---------------4---5-|
|--2-----------------2-----------|--1-----------------9-----4---4-|
|--------------------4-----4-----|------------------------------2-|
|--------------------2-----0-----|--4-------2---------0-----------|
|--2-----------------------------|--------------------------4-----|

 |       |       |       |
|--2---0-----------0-------------||
|----------4-------0-------------||
|--2---------------1-------------||
|------------------2-------------||
|--2---------------2-------------||
|------------------0-------------||

Добавлено: 22.02.2012
Другие материалы по этой песне:
  • Аккорды и текст

Страница создана 22.02.2012
http://primanota.ru/andres-segovia/canciones-populares-de-distintos-paises-escocesa-chords.htm
Привет, Гость.
Предлагаем пройти революционный курс по гитаре.
Подарок от PrimaNota.Ru, забирай!