PrimaNota.ru - самый крупный в мире бесплатный архив песенных текстов, аккордов, табулатур и нот


Andres Cepeda - Ciertas Cosas - аккорды и текст, видео

Регистрация Запомнить меня
Войти через:  Facebook Google Twitter Vk Yandex Mail.ru

Andres Cepeda - Ciertas Cosas - аккорды и текст, видео

Печатать
Просмотров: 118
Ciertas Cosas
Andres Cepeda
Les envio la canción que más me gusta de Andres, espero les guste.
Alguna duda o comentario a mi correo en Marinilla - Colombia.
03-2003

E--------------------------------------------------------------------- 
A--------------------------------------------------------------------- 
D--------------------------------------------------------------------- 
G--------------------------------------------------6--6----------6----  
B---4--5--7--7--7-----7---7--7--7--7---7--------5------5-----5----5---     
E---4--5--7--7--7^9^--7---7--7--7--7---7--5--4----------4----------4--


E-----------------------------------------
A--------9--------------------------------    
D------------9-----9---9------------------
G---------------9-------9-----------------
B---5--------------------7----------------
E-------------------------7---------------


     E*                 B/F#
Soportando crecer aprendí que el perder 
     A          Am          A7M      E*   E    
hace parte de pagar la vida cuotas 
       E                 B        
cuando la realidad ya se puede palpar 
     A                         Am
y te vas despertando a ciertas cosas 
                                                 
       E*             B/F#
Vas perdiendo amistad mucho tiempo quizás
      A                                Am 
hasta cuando te encuentres frente a la vida 
        E                   B           
alguien dijo una ves que el amor es un adiós 
          A     Am
que no termina 


        C#m                  C#m7 
Y me perdí en su mirar sin poder 
              A7M       Am  Am/F#
despertar regale mi corazón
       E                    B        
fui perdiendo amistad mucho tiempo quizás 
      A                               Am
hasta cuando me encontré  frente a la vida 


        E                   B                          A7M  
Alguien dijo una ves que el amor es un adiós que no termina 
        A                    Am           B            E
alguien dijo una ves que el amor es un adiós que no termina.

E*   : 0 2 2 1 0 2
A7M  : 0 0 2 1 2 0
Добавлено: 16.05.2015
Другие материалы по этой песне:
  • Аккорды и текст

Страница создана 16.05.2015
http://primanota.ru/andres-cepeda/ciertas-cosas-chords.htm
Привет, Гость.
Предлагаем пройти революционный курс по гитаре.
Подарок от PrimaNota.Ru, забирай!